  0
SECTION
  2
HEADER
  9
$ACADVER
  1
AC1015
  9
$ACADMAINTVER
 70
     6
  9
$DWGCODEPAGE
  3
ANSI_1254
  9
$INSBASE
 10
0.0
 20
0.0
 30
0.0
  9
$EXTMIN
 10
0.0
 20
0.0
 30
0.0
  9
$EXTMAX
 10
279.4
 20
215.9
 30
0.0
  9
$LIMMIN
 10
0.0
 20
0.0
  9
$LIMMAX
 10
279.4
 20
215.9
  9
$ORTHOMODE
 70
     0
  9
$REGENMODE
 70
     1
  9
$FILLMODE
 70
     1
  9
$QTEXTMODE
 70
     0
  9
$MIRRTEXT
 70
     1
  9
$LTSCALE
 40
1.0
  9
$ATTMODE
 70
     1
  9
$TEXTSIZE
 40
3.5
  9
$TRACEWID
 40
1.0
  9
$TEXTSTYLE
  7
Standard
  9
$CLAYER
  8
0
  9
$CELTYPE
  6
ByLayer
  9
$CECOLOR
 62
   256
  9
$CELTSCALE
 40
1.0
  9
$DISPSILH
 70
     0
  9
$DIMSCALE
 40
1.0
  9
$DIMASZ
 40
3.5
  9
$DIMEXO
 40
1.0
  9
$DIMDLI
 40
3.75
  9
$DIMRND
 40
0.0
  9
$DIMDLE
 40
0.0
  9
$DIMEXE
 40
1.0
  9
$DIMTP
 40
0.0
  9
$DIMTM
 40
0.0
  9
$DIMTXT
 40
3.5
  9
$DIMCEN
 40
2.5
  9
$DIMTSZ
 40
0.0
  9
$DIMTOL
 70
     0
  9
$DIMLIM
 70
     0
  9
$DIMTIH
 70
     1
  9
$DIMTOH
 70
     1
  9
$DIMSE1
 70
     0
  9
$DIMSE2
 70
     0
  9
$DIMTAD
 70
     1
  9
$DIMZIN
 70
     0
  9
$DIMBLK
  1

  9
$DIMASO
 70
     1
  9
$DIMSHO
 70
     1
  9
$DIMPOST
  1

  9
$DIMAPOST
  1

  9
$DIMALT
 70
     0
  9
$DIMALTD
 70
     3
  9
$DIMALTF
 40
0.0393700787
  9
$DIMLFAC
 40
1.0
  9
$DIMTOFL
 70
     1
  9
$DIMTVP
 40
0.0
  9
$DIMTIX
 70
     0
  9
$DIMSOXD
 70
     0
  9
$DIMSAH
 70
     0
  9
$DIMBLK1
  1

  9
$DIMBLK2
  1

  9
$DIMSTYLE
  2
ISO-25
  9
$DIMCLRD
 70
     0
  9
$DIMCLRE
 70
     0
  9
$DIMCLRT
 70
     0
  9
$DIMTFAC
 40
1.0
  9
$DIMGAP
 40
1.524
  9
$DIMJUST
 70
     0
  9
$DIMSD1
 70
     0
  9
$DIMSD2
 70
     0
  9
$DIMTOLJ
 70
     0
  9
$DIMTZIN
 70
     0
  9
$DIMALTZ
 70
     0
  9
$DIMALTTZ
 70
     0
  9
$DIMUPT
 70
     0
  9
$DIMDEC
 70
     2
  9
$DIMTDEC
 70
     2
  9
$DIMALTU
 70
     2
  9
$DIMALTTD
 70
     3
  9
$DIMTXSTY
  7
Standard
  9
$DIMAUNIT
 70
     0
  9
$DIMADEC
 70
     2
  9
$DIMALTRND
 40
0.0
  9
$DIMAZIN
 70
     0
  9
$DIMDSEP
 70
    44
  9
$DIMATFIT
 70
     3
  9
$DIMFRAC
 70
     0
  9
$DIMLDRBLK
  1

  9
$DIMLUNIT
 70
     2
  9
$DIMLWD
 70
    -2
  9
$DIMLWE
 70
    -2
  9
$DIMTMOVE
 70
     0
  9
$LUNITS
 70
     2
  9
$LUPREC
 70
     2
  9
$SKETCHINC
 40
1.0
  9
$FILLETRAD
 40
10.0
  9
$AUNITS
 70
     0
  9
$AUPREC
 70
     2
  9
$MENU
  1
.
  9
$ELEVATION
 40
0.0
  9
$PELEVATION
 40
0.0
  9
$THICKNESS
 40
0.0
  9
$LIMCHECK
 70
     0
  9
$CHAMFERA
 40
0.0
  9
$CHAMFERB
 40
0.0
  9
$CHAMFERC
 40
0.0
  9
$CHAMFERD
 40
0.0
  9
$SKPOLY
 70
     0
  9
$TDCREATE
 40
2458985.718061585
  9
$TDUCREATE
 40
2458985.593061585
  9
$TDUPDATE
 40
2458985.718061852
  9
$TDUUPDATE
 40
2458985.593061852
  9
$TDINDWG
 40
0.0000000116
  9
$TDUSRTIMER
 40
0.0000000116
  9
$USRTIMER
 70
     1
  9
$ANGBASE
 50
0.0
  9
$ANGDIR
 70
     0
  9
$PDMODE
 70
     0
  9
$PDSIZE
 40
-1.0
  9
$PLINEWID
 40
0.0
  9
$SPLFRAME
 70
     0
  9
$SPLINETYPE
 70
     6
  9
$SPLINESEGS
 70
     8
  9
$HANDSEED
  5
DD
  9
$SURFTAB1
 70
     6
  9
$SURFTAB2
 70
     6
  9
$SURFTYPE
 70
     6
  9
$SURFU
 70
     6
  9
$SURFV
 70
     6
  9
$UCSBASE
  2

  9
$UCSNAME
  2

  9
$UCSORG
 10
0.0
 20
0.0
 30
0.0
  9
$UCSXDIR
 10
1.0
 20
0.0
 30
0.0
  9
$UCSYDIR
 10
0.0
 20
1.0
 30
0.0
  9
$UCSORTHOREF
  2

  9
$UCSORTHOVIEW
 70
     0
  9
$UCSORGTOP
 10
0.0
 20
0.0
 30
0.0
  9
$UCSORGBOTTOM
 10
0.0
 20
0.0
 30
0.0
  9
$UCSORGLEFT
 10
0.0
 20
0.0
 30
0.0
  9
$UCSORGRIGHT
 10
0.0
 20
0.0
 30
0.0
  9
$UCSORGFRONT
 10
0.0
 20
0.0
 30
0.0
  9
$UCSORGBACK
 10
0.0
 20
0.0
 30
0.0
  9
$PUCSBASE
  2

  9
$PUCSNAME
  2

  9
$PUCSORG
 10
0.0
 20
0.0
 30
0.0
  9
$PUCSXDIR
 10
1.0
 20
0.0
 30
0.0
  9
$PUCSYDIR
 10
0.0
 20
1.0
 30
0.0
  9
$PUCSORTHOREF
  2

  9
$PUCSORTHOVIEW
 70
     0
  9
$PUCSORGTOP
 10
0.0
 20
0.0
 30
0.0
  9
$PUCSORGBOTTOM
 10
0.0
 20
0.0
 30
0.0
  9
$PUCSORGLEFT
 10
0.0
 20
0.0
 30
0.0
  9
$PUCSORGRIGHT
 10
0.0
 20
0.0
 30
0.0
  9
$PUCSORGFRONT
 10
0.0
 20
0.0
 30
0.0
  9
$PUCSORGBACK
 10
0.0
 20
0.0
 30
0.0
  9
$USERI1
 70
     0
  9
$USERI2
 70
     0
  9
$USERI3
 70
     0
  9
$USERI4
 70
     0
  9
$USERI5
 70
     0
  9
$USERR1
 40
0.0
  9
$USERR2
 40
0.0
  9
$USERR3
 40
0.0
  9
$USERR4
 40
0.0
  9
$USERR5
 40
0.0
  9
$WORLDVIEW
 70
     1
  9
$SHADEDGE
 70
     3
  9
$SHADEDIF
 70
    70
  9
$TILEMODE
 70
     1
  9
$MAXACTVP
 70
    64
  9
$PINSBASE
 10
0.0
 20
0.0
 30
0.0
  9
$PLIMCHECK
 70
     0
  9
$PEXTMIN
 10
1.0000000000E+20
 20
1.0000000000E+20
 30
1.0000000000E+20
  9
$PEXTMAX
 10
-1.0000000000E+20
 20
-1.0000000000E+20
 30
-1.0000000000E+20
  9
$PLIMMIN
 10
0.0
 20
0.0
  9
$PLIMMAX
 10
420.0
 20
297.0
  9
$UNITMODE
 70
     0
  9
$VISRETAIN
 70
     1
  9
$PLINEGEN
 70
     0
  9
$PSLTSCALE
 70
     1
  9
$TREEDEPTH
 70
  3020
  9
$CMLSTYLE
  2
Standard
  9
$CMLJUST
 70
     0
  9
$CMLSCALE
 40
20.0
  9
$PROXYGRAPHICS
 70
     1
  9
$MEASUREMENT
 70
     1
  9
$CELWEIGHT
370
    -1
  9
$ENDCAPS
280
     0
  9
$JOINSTYLE
280
     0
  9
$LWDISPLAY
290
     1
  9
$INSUNITS
 70
     4
  9
$HYPERLINKBASE
  1

  9
$STYLESHEET
  1

  9
$XEDIT
290
     1
  9
$CEPSNTYPE
380
     0
  9
$PSTYLEMODE
290
     1
  9
$FINGERPRINTGUID
  2
{74353778-8319-4c2a-a14d-b4d1c92fc265}
  9
$VERSIONGUID
  2
{FAEB1C32-E019-11D5-929B-00C0DF256EC4}
  9
$EXTNAMES
290
     1
  9
$PSVPSCALE
 40
0.0
  9
$OLESTARTUP
290
     0
  0
ENDSEC
  0
SECTION
  2
CLASSES
  0
CLASS
  1
ACDBDICTIONARYWDFLT
  2
AcDbDictionaryWithDefault
  3
ObjectDBX Classes
 90
        0
280
     0
281
     0
  0
CLASS
  1
VISUALSTYLE
  2
AcDbVisualStyle
  3
ObjectDBX Classes
 90
     4095
280
     0
281
     0
  0
CLASS
  1
MATERIAL
  2
AcDbMaterial
  3
ObjectDBX Classes
 90
     1153
280
     0
281
     0
  0
CLASS
  1
SCALE
  2
AcDbScale
  3
ObjectDBX Classes
 90
     1153
280
     0
281
     0
  0
CLASS
  1
TABLESTYLE
  2
AcDbTableStyle
  3
ObjectDBX Classes
 90
     4095
280
     0
281
     0
  0
CLASS
  1
MLEADERSTYLE
  2
AcDbMLeaderStyle
  3
ACDB_MLEADERSTYLE_CLASS
 90
     4095
280
     0
281
     0
  0
CLASS
  1
SUN
  2
AcDbSun
  3
SCENEOE
 90
     1153
280
     0
281
     0
  0
CLASS
  1
ACDBPLACEHOLDER
  2
AcDbPlaceHolder
  3
ObjectDBX Classes
 90
        0
280
     0
281
     0
  0
CLASS
  1
LAYOUT
  2
AcDbLayout
  3
ObjectDBX Classes
 90
        0
280
     0
281
     0
  0
ENDSEC
  0
SECTION
  2
TABLES
  0
TABLE
  2
VPORT
  5
8
330
0
100
AcDbSymbolTable
 70
     1
  0
VPORT
  5
29
330
8
100
AcDbSymbolTableRecord
100
AcDbViewportTableRecord
  2
*Active
 70
     0
 10
0.0
 20
0.0
 11
1.0
 21
1.0
 12
139.7
 22
107.95
 13
0.0
 23
0.0
 14
10.0
 24
10.0
 15
10.0
 25
10.0
 16
0.0
 26
0.0
 36
1.0
 17
0.0
 27
0.0
 37
0.0
 40
215.9
 41
1.2941176471
 42
50.0
 43
0.0
 44
0.0
 50
0.0
 51
0.0
 71
     0
 72
  2000
 73
     1
 74
     3
 75
     0
 76
     0
 77
     0
 78
     0
281
     0
 65
     1
110
0.0
120
0.0
130
0.0
111
1.0
121
0.0
131
0.0
112
0.0
122
1.0
132
0.0
 79
     0
146
0.0
  0
ENDTAB
  0
TABLE
  2
LTYPE
  5
5
330
0
100
AcDbSymbolTable
 70
     6
  0
LTYPE
  5
14
330
5
100
AcDbSymbolTableRecord
100
AcDbLinetypeTableRecord
  2
ByBlock
 70
     0
  3

 72
    65
 73
     0
 40
0.0
  0
LTYPE
  5
15
330
5
100
AcDbSymbolTableRecord
100
AcDbLinetypeTableRecord
  2
ByLayer
 70
     0
  3

 72
    65
 73
     0
 40
0.0
  0
LTYPE
  5
16
330
5
100
AcDbSymbolTableRecord
100
AcDbLinetypeTableRecord
  2
Continuous
 70
     0
  3
Solid line
 72
    65
 73
     0
 40
0.0
  0
LTYPE
  5
6E
330
5
100
AcDbSymbolTableRecord
100
AcDbLinetypeTableRecord
  2
HIDDEN
 70
     0
  3
Hidden __ __ __ __ __ __ __ __ __ __ __ __ __ __
 72
    65
 73
     2
 40
1.905
 49
1.27
 74
     0
 49
-0.635
 74
     0
  0
LTYPE
  5
6F
330
5
100
AcDbSymbolTableRecord
100
AcDbLinetypeTableRecord
  2
PHANTOM
 70
     0
  3
Phantom ______  __  __  ______  __  __  ______
 72
    65
 73
     6
 40
12.7
 49
6.35
 74
     0
 49
-1.27
 74
     0
 49
1.27
 74
     0
 49
-1.27
 74
     0
 49
1.27
 74
     0
 49
-1.27
 74
     0
  0
LTYPE
  5
70
330
5
100
AcDbSymbolTableRecord
100
AcDbLinetypeTableRecord
  2
CENTER
 70
     0
  3
Center ____ _ ____ _ ____ _ ____ _ ____ _ ____
 72
    65
 73
     4
 40
10.16
 49
6.35
 74
     0
 49
-1.27
 74
     0
 49
1.27
 74
     0
 49
-1.27
 74
     0
  0
LTYPE
  5
71
330
5
100
AcDbSymbolTableRecord
100
AcDbLinetypeTableRecord
  2
CENTERX2
 70
     0
  3
Center (2x) ________  __  ________  __  _____
 72
    65
 73
     4
 40
20.32
 49
12.7
 74
     0
 49
-2.54
 74
     0
 49
2.54
 74
     0
 49
-2.54
 74
     0
  0
LTYPE
  5
72
330
5
100
AcDbSymbolTableRecord
100
AcDbLinetypeTableRecord
  2
DOT2
 70
     0
  3
Dot (.5x) ........................................
 72
    65
 73
     2
 40
0.635
 49
0.0
 74
     0
 49
-0.635
 74
     0
  0
ENDTAB
  0
TABLE
  2
LAYER
  5
2
330
0
100
AcDbSymbolTable
 70
    17
  0
LAYER
  5
10
330
2
100
AcDbSymbolTableRecord
100
AcDbLayerTableRecord
  2
0
 70
     0
 62
     7
  6
Continuous
370
    -3
390
F
  0
LAYER
  5
73
330
2
100
AcDbSymbolTableRecord
100
AcDbLayerTableRecord
  2
FORMAT
 70
     0
 62
     7
  6
Continuous
370
    -3
390
F
  0
LAYER
  5
74
330
2
100
AcDbSymbolTableRecord
100
AcDbLayerTableRecord
  2
YARDIMCI_GEOMETRI
 70
     0
 62
    -6
  6
Continuous
290
     0
370
    -3
390
F
  0
LAYER
  5
75
330
2
100
AcDbSymbolTableRecord
100
AcDbLayerTableRecord
  2
SAYFA_CERCEVESI
 70
     0
 62
     7
  6
Continuous
370
    25
390
F
  0
LAYER
  5
76
330
2
100
AcDbSymbolTableRecord
100
AcDbLayerTableRecord
  2
ANTET
 70
     0
 62
     7
  6
Continuous
370
    -3
390
F
  0
LAYER
  5
77
330
2
100
AcDbSymbolTableRecord
100
AcDbLayerTableRecord
  2
OLCU
 70
     0
 62
   150
  6
Continuous
370
    -3
390
F
  0
LAYER
  5
78
330
2
100
AcDbSymbolTableRecord
100
AcDbLayerTableRecord
  2
METIN
 70
     0
 62
    96
  6
Continuous
370
    -3
390
F
  0
LAYER
  5
79
330
2
100
AcDbSymbolTableRecord
100
AcDbLayerTableRecord
  2
BALON
 70
     0
 62
     5
  6
Continuous
370
    -3
390
F
  0
LAYER
  5
7A
330
2
100
AcDbSymbolTableRecord
100
AcDbLayerTableRecord
  2
VURGU
 70
     0
 62
     7
  6
Continuous
370
    -3
390
F
  0
LAYER
  5
7B
330
2
100
AcDbSymbolTableRecord
100
AcDbLayerTableRecord
  2
SILIK
 70
     0
 62
     7
  6
Continuous
370
    -3
390
F
  0
LAYER
  5
7C
330
2
100
AcDbSymbolTableRecord
100
AcDbLayerTableRecord
  2
MODEL
 70
     0
 62
     7
  6
Continuous
370
    -3
390
F
  0
LAYER
  5
7D
330
2
100
AcDbSymbolTableRecord
100
AcDbLayerTableRecord
  2
DETAYLANDıRMA
 70
     0
 62
   190
  6
Continuous
370
    -3
390
F
  0
LAYER
  5
7E
330
2
100
AcDbSymbolTableRecord
100
AcDbLayerTableRecord
  2
TOLERANS
 70
     0
 62
   230
  6
Continuous
370
    -3
390
F
  0
LAYER
  5
7F
330
2
100
AcDbSymbolTableRecord
100
AcDbLayerTableRecord
  2
MERKEZ_CIZGILERI
 70
     0
 62
    30
  6
Continuous
370
    -3
390
F
  0
LAYER
  5
80
330
2
100
AcDbSymbolTableRecord
100
AcDbLayerTableRecord
  2
KESIT-DETAY_CIZGILERI
 70
     0
 62
     7
  6
Continuous
370
    -3
390
F
  0
LAYER
  5
81
330
2
100
AcDbSymbolTableRecord
100
AcDbLayerTableRecord
  2
\U+041E\U+0421\U+0415\U+0412\U+042B\U+0415
 70
     0
 62
     7
  6
Continuous
370
    -3
390
F
  0
LAYER
  5
82
330
2
100
AcDbSymbolTableRecord
100
AcDbLayerTableRecord
  2
\U+0412\U+041E\U+0414\U+042F\U+041D\U+042B\U+0415_\U+0417\U+041D\U+0410\U+041A\U+0418
 70
     0
 62
    11
  6
Continuous
370
    -3
390
F
  0
ENDTAB
  0
TABLE
  2
STYLE
  5
3
330
0
100
AcDbSymbolTable
 70
     1
  0
STYLE
  5
11
330
3
100
AcDbSymbolTableRecord
100
AcDbTextStyleTableRecord
  2
Standard
 70
     0
 40
0.0
 41
1.0
 50
0.0
 71
     0
 42
3.5
  3
txt
  4

  0
ENDTAB
  0
TABLE
  2
VIEW
  5
6
330
0
100
AcDbSymbolTable
 70
     0
  0
ENDTAB
  0
TABLE
  2
UCS
  5
7
330
0
100
AcDbSymbolTable
 70
     0
  0
ENDTAB
  0
TABLE
  2
APPID
  5
9
330
0
100
AcDbSymbolTable
 70
     1
  0
APPID
  5
12
330
9
100
AcDbSymbolTableRecord
100
AcDbRegAppTableRecord
  2
ACAD
 70
     0
  0
ENDTAB
  0
TABLE
  2
DIMSTYLE
  5
A
330
0
100
AcDbSymbolTable
 70
     1
100
AcDbDimStyleTable
  0
DIMSTYLE
105
27
330
A
100
AcDbSymbolTableRecord
100
AcDbDimStyleTableRecord
  2
ISO-25
 70
     0
 41
2.5
 42
0.625
 43
3.75
 44
1.25
 73
     0
 74
     0
 77
     1
 78
     8
140
2.5
141
2.5
143
0.0393700787
147
0.625
171
     3
172
     1
178
     0
271
     2
272
     2
274
     3
278
    44
283
     0
284
     8
340
11
  0
ENDTAB
  0
TABLE
  2
BLOCK_RECORD
  5
1
330
0
100
AcDbSymbolTable
 70
     3
  0
BLOCK_RECORD
  5
1F
330
1
100
AcDbSymbolTableRecord
100
AcDbBlockTableRecord
  2
*Model_Space
340
22
  0
BLOCK_RECORD
  5
1B
330
1
100
AcDbSymbolTableRecord
100
AcDbBlockTableRecord
  2
*Paper_Space
340
1E
  0
BLOCK_RECORD
  5
23
330
1
100
AcDbSymbolTableRecord
100
AcDbBlockTableRecord
  2
*Paper_Space0
340
26
  0
BLOCK_RECORD
  5
AF
330
1
100
AcDbSymbolTableRecord
100
AcDbBlockTableRecord
  2
SW_CENTERMARKSYMBOL_0
340
0
102
{BLKREFS
331
BA
102
}
  0
BLOCK_RECORD
  5
C3
330
1
100
AcDbSymbolTableRecord
100
AcDbBlockTableRecord
  2
SW_CENTERMARKSYMBOL_1
340
0
102
{BLKREFS
331
CE
102
}
  0
ENDTAB
  0
ENDSEC
  0
SECTION
  2
BLOCKS
  0
BLOCK
  5
20
330
1F
100
AcDbEntity
  8
0
100
AcDbBlockBegin
  2
*Model_Space
 70
     0
 10
0.0
 20
0.0
 30
0.0
  3
*Model_Space
  1

  0
ENDBLK
  5
21
330
1F
100
AcDbEntity
  8
0
100
AcDbBlockEnd
  0
BLOCK
  5
1C
330
1B
100
AcDbEntity
 67
     1
  8
0
100
AcDbBlockBegin
  2
*Paper_Space
 70
     0
 10
0.0
 20
0.0
 30
0.0
  3
*Paper_Space
  1

  0
ENDBLK
  5
1D
330
1B
100
AcDbEntity
 67
     1
  8
0
100
AcDbBlockEnd
  0
BLOCK
  5
24
330
23
100
AcDbEntity
  8
0
100
AcDbBlockBegin
  2
*Paper_Space0
 70
     0
 10
0.0
 20
0.0
 30
0.0
  3
*Paper_Space0
  1

  0
ENDBLK
  5
25
330
23
100
AcDbEntity
  8
0
100
AcDbBlockEnd
  0
BLOCK
  5
B0
330
AF
100
AcDbEntity
  8
0
100
AcDbBlockBegin
  2
SW_CENTERMARKSYMBOL_0
 70
     0
 10
0.0
 20
0.0
 30
0.0
  3
SW_CENTERMARKSYMBOL_0
  1

  0
LINE
  5
B2
330
AF
100
AcDbEntity
  8
FORMAT
 62
     0
100
AcDbLine
 10
0.0
 20
0.0
 30
0.0
 11
0.0
 21
2.5
 31
0.0
  0
LINE
  5
B3
330
AF
100
AcDbEntity
  8
FORMAT
 62
     0
100
AcDbLine
 10
0.0
 20
0.0
 30
0.0
 11
-2.5
 21
0.0
 31
0.0
  0
LINE
  5
B4
330
AF
100
AcDbEntity
  8
FORMAT
 62
     0
100
AcDbLine
 10
0.0
 20
0.0
 30
0.0
 11
0.0
 21
-2.5
 31
0.0
  0
LINE
  5
B5
330
AF
100
AcDbEntity
  8
FORMAT
 62
     0
100
AcDbLine
 10
0.0
 20
0.0
 30
0.0
 11
2.5
 21
0.0
 31
0.0
  0
LINE
  5
B6
330
AF
100
AcDbEntity
  8
FORMAT
 62
     0
100
AcDbLine
 10
0.0
 20
5.0
 30
0.0
 11
0.0
 21
27.5
 31
0.0
  0
LINE
  5
B7
330
AF
100
AcDbEntity
  8
FORMAT
 62
     0
100
AcDbLine
 10
-5.0
 20
0.0
 30
0.0
 11
-27.5
 21
0.0
 31
0.0
  0
LINE
  5
B8
330
AF
100
AcDbEntity
  8
FORMAT
 62
     0
100
AcDbLine
 10
0.0
 20
-5.0
 30
0.0
 11
0.0
 21
-27.5
 31
0.0
  0
LINE
  5
B9
330
AF
100
AcDbEntity
  8
FORMAT
 62
     0
100
AcDbLine
 10
5.0
 20
0.0
 30
0.0
 11
27.5
 21
0.0
 31
0.0
  0
ENDBLK
  5
B1
330
AF
100
AcDbEntity
  8
0
100
AcDbBlockEnd
  0
BLOCK
  5
C4
330
C3
100
AcDbEntity
  8
0
100
AcDbBlockBegin
  2
SW_CENTERMARKSYMBOL_1
 70
     0
 10
0.0
 20
0.0
 30
0.0
  3
SW_CENTERMARKSYMBOL_1
  1

  0
LINE
  5
C6
330
C3
100
AcDbEntity
  8
FORMAT
 62
     0
100
AcDbLine
 10
0.0
 20
0.0
 30
0.0
 11
0.0
 21
2.5
 31
0.0
  0
LINE
  5
C7
330
C3
100
AcDbEntity
  8
FORMAT
 62
     0
100
AcDbLine
 10
0.0
 20
0.0
 30
0.0
 11
-2.5
 21
0.0
 31
0.0
  0
LINE
  5
C8
330
C3
100
AcDbEntity
  8
FORMAT
 62
     0
100
AcDbLine
 10
0.0
 20
0.0
 30
0.0
 11
0.0
 21
-2.5
 31
0.0
  0
LINE
  5
C9
330
C3
100
AcDbEntity
  8
FORMAT
 62
     0
100
AcDbLine
 10
0.0
 20
0.0
 30
0.0
 11
2.5
 21
0.0
 31
0.0
  0
LINE
  5
CA
330
C3
100
AcDbEntity
  8
FORMAT
 62
     0
100
AcDbLine
 10
0.0
 20
5.0
 30
0.0
 11
0.0
 21
27.5
 31
0.0
  0
LINE
  5
CB
330
C3
100
AcDbEntity
  8
FORMAT
 62
     0
100
AcDbLine
 10
-5.0
 20
0.0
 30
0.0
 11
-27.5
 21
0.0
 31
0.0
  0
LINE
  5
CC
330
C3
100
AcDbEntity
  8
FORMAT
 62
     0
100
AcDbLine
 10
0.0
 20
-5.0
 30
0.0
 11
0.0
 21
-27.5
 31
0.0
  0
LINE
  5
CD
330
C3
100
AcDbEntity
  8
FORMAT
 62
     0
100
AcDbLine
 10
5.0
 20
0.0
 30
0.0
 11
27.5
 21
0.0
 31
0.0
  0
ENDBLK
  5
C5
330
C3
100
AcDbEntity
  8
0
100
AcDbBlockEnd
  0
ENDSEC
  0
SECTION
  2
ENTITIES
  0
LINE
  5
83
330
1F
100
AcDbEntity
  8
0
  6
Continuous
 62
     7
370
    25
100
AcDbLine
 10
94.5455648421
 20
106.7396605939
 30
0.0
 11
94.5455648421
 21
28.0949974984
 31
0.0
  0
LINE
  5
84
330
1F
100
AcDbEntity
  8
0
  6
Continuous
 62
     7
370
    25
100
AcDbLine
 10
144.5455655872
 20
28.0949974984
 30
0.0
 11
144.5455655872
 21
106.7396605939
 31
0.0
  0
ARC
  5
85
330
1F
100
AcDbEntity
  8
0
  6
Continuous
 62
     7
370
    25
100
AcDbCircle
 10
144.5455652147
 20
106.7396584391
 30
0.0
 40
49.99999999999999
100
AcDbArc
 50
135.0
 51
180.0
  0
LINE
  5
86
330
1F
100
AcDbEntity
  8
0
  6
Continuous
 62
     7
370
    25
100
AcDbLine
 10
165.8678960471
 20
198.7726742953
 30
0.0
 11
109.1902258291
 21
142.094997558
 31
0.0
  0
LINE
  5
87
330
1F
100
AcDbEntity
  8
0
  6
Continuous
 62
     7
370
    25
100
AcDbLine
 10
144.5455655872
 20
106.7396605939
 30
0.0
 11
201.2232330113
 21
163.4173298806
 31
0.0
  0
LINE
  5
88
330
1F
100
AcDbEntity
  8
0
  6
Continuous
 62
     7
370
    25
100
AcDbLine
 10
119.5455652147
 20
28.0949974984
 30
0.0
 11
144.5455655872
 21
28.0949974984
 31
0.0
  0
LINE
  5
89
330
1F
100
AcDbEntity
  8
0
  6
Continuous
 62
     7
370
    25
100
AcDbLine
 10
94.5455648421
 20
28.0949974984
 30
0.0
 11
119.5455652147
 21
28.0949974984
 31
0.0
  0
LWPOLYLINE
  5
8A
330
1F
100
AcDbEntity
  8
0
  6
Continuous
 62
     7
370
    25
100
AcDbPolyline
 90
       22
 70
   128
 43
0.0
 10
183.5455682545
 20
181.0949946374
 10
184.8825078874
 20
179.7580624551
 10
186.2117883234
 20
178.4287745684
 10
187.5257950692
 20
177.114760372
 10
188.817010489
 20
175.8235598534
 10
190.0780287056
 20
174.5625341862
 10
191.3016301065
 20
173.338940236
 10
192.4808036952
 20
172.1597666472
 10
193.6087917953
 20
171.031763646
 10
194.6791496544
 20
169.9614132374
 10
195.6857305436
 20
168.9548397988
 10
196.6227677136
 20
168.0177951783
 10
197.4849116473
 20
167.1556586951
 10
198.2672002583
 20
166.3733626336
 10
198.9651706486
 20
165.6753922433
 10
199.5748218565
 20
165.0657410353
 10
200.0926521092
 20
164.5479107827
 10
200.5157109766
 20
164.1248519152
 10
200.841562119
 20
163.7990082234
 10
201.0683354407
 20
163.5722274512
 10
201.1947494416
 20
163.4458059996
 10
201.2232330113
 20
163.4173298806
  0
LWPOLYLINE
  5
8B
330
1F
100
AcDbEntity
  8
0
  6
Continuous
 62
     7
370
    25
100
AcDbPolyline
 90
       22
 70
   128
 43
0.0
 10
165.8678960471
 20
198.7726742953
 10
165.8963796168
 20
198.7441832751
 10
166.0227898925
 20
198.6177767247
 10
166.2495706647
 20
198.3909959525
 10
166.5754218071
 20
198.0651373595
 10
166.9984769492
 20
197.6420933932
 10
167.5163109272
 20
197.1242482394
 10
168.1259584098
 20
196.5146119326
 10
168.8239288001
 20
195.8166415423
 10
169.6062211364
 20
195.0343454808
 10
170.4683613448
 20
194.1722089976
 10
171.4054022401
 20
193.2351643771
 10
172.4119831293
 20
192.2285760373
 10
173.4823372631
 20
191.1582256287
 10
174.6103290885
 20
190.0302375287
 10
175.7895026772
 20
188.8510639399
 10
177.0131040781
 20
187.6274550885
 10
178.2741222947
 20
186.3664443225
 10
179.5653339892
 20
185.0752289027
 10
180.8793444603
 20
183.7612147063
 10
182.2086286216
 20
182.4319417208
 10
183.5455682545
 20
181.0949946374
  0
LINE
  5
8C
330
1F
100
AcDbEntity
  8
0
  6
Continuous
 62
     1
370
    25
100
AcDbLine
 10
94.5455648421
 20
106.7396605939
 30
0.0
 11
144.5455655872
 21
106.7396605939
 31
0.0
  0
LWPOLYLINE
  5
8D
330
1F
100
AcDbEntity
  8
0
  6
Continuous
 62
     1
370
    25
100
AcDbPolyline
 90
       44
 70
   128
 43
0.0
 10
109.1902258291
 20
142.094997558
 10
109.2028880908
 20
142.0823390216
 10
109.3040716319
 20
141.9811526865
 10
109.5058585002
 20
141.7793611616
 10
109.807094787
 20
141.4781267375
 10
110.2060528888
 20
141.0791704982
 10
110.7004492029
 20
140.5847723216
 10
111.2874506458
 20
139.9977708787
 10
111.9636956087
 20
139.3215263814
 10
112.7253107212
 20
138.5599131316
 10
113.5679332024
 20
137.717289719
 10
114.4867364733
 20
136.7984841198
 10
115.4764580957
 20
135.8087638944
 10
116.5314286432
 20
134.7537914842
 10
117.6456055787
 20
133.6396167606
 10
118.8126070143
 20
132.4726174205
 10
120.0257484402
 20
131.2594766349
 10
121.2780810843
 20
130.0071457952
 10
122.5624314926
 20
128.7227923602
 10
123.8714435554
 20
127.4137775034
 10
125.197618962
 20
126.0876039594
 10
126.5333613797
 20
124.75186387
 10
127.8710199936
 20
123.4142015308
 10
129.2029323473
 20
122.0822910398
 10
130.5214709087
 20
120.763754341
 10
131.8190817206
 20
119.4661388725
 10
133.0883318975
 20
118.1968952149
 10
134.3219524666
 20
116.9632727832
 10
135.5128765522
 20
115.7723496288
 10
136.654283148
 20
114.6309430331
 10
137.7396353005
 20
113.5455871552
 10
138.7627136379
 20
112.5225106806
 10
139.7176601409
 20
111.5675623149
 10
140.5990042209
 20
110.6862182349
 10
141.4016981094
 20
109.8835224837
 10
142.1211429357
 20
109.1640795201
 10
142.7532185285
 20
108.5320020646
 10
143.2943057685
 20
107.9909185499
 10
143.7413033514
 20
107.543920967
 10
144.0916520028
 20
107.1935723156
 10
144.3433437913
 20
106.9418842524
 10
144.4949370294
 20
106.790287289
 10
144.5455655872
 20
106.7396605939
 10
144.5455655872
 20
106.7396605939
  0
LINE
  5
8E
330
1F
100
AcDbEntity
  8
0
  6
Continuous
 62
     7
370
    25
100
AcDbLine
 10
-14.1614016877
 20
181.0949946374
 30
0.0
 11
-14.1614016877
 21
124.4173253506
 31
0.0
  0
LINE
  5
8F
330
1F
100
AcDbEntity
  8
0
  6
Continuous
 62
     7
370
    25
100
AcDbLine
 10
35.8385990574
 20
124.4173253506
 30
0.0
 11
35.8385990574
 21
181.0949946374
 31
0.0
  0
LINE
  5
90
330
1F
100
AcDbEntity
  8
0
  6
Continuous
 62
     7
370
    25
100
AcDbLine
 10
-14.1614016877
 20
124.4173253506
 30
0.0
 11
-14.1614016877
 21
106.7396605939
 31
0.0
  0
LINE
  5
91
330
1F
100
AcDbEntity
  8
0
  6
Continuous
 62
     7
370
    25
100
AcDbLine
 10
35.8385990574
 20
106.7396605939
 30
0.0
 11
35.8385990574
 21
124.4173253506
 31
0.0
  0
LINE
  5
92
330
1F
100
AcDbEntity
  8
0
  6
Continuous
 62
     7
370
    25
100
AcDbLine
 10
-14.1614016877
 20
106.7396605939
 30
0.0
 11
-14.1614016877
 21
28.0949974984
 31
0.0
  0
LINE
  5
93
330
1F
100
AcDbEntity
  8
0
  6
Continuous
 62
     7
370
    25
100
AcDbLine
 10
35.8385990574
 20
28.0949974984
 30
0.0
 11
35.8385990574
 21
106.7396605939
 31
0.0
  0
LWPOLYLINE
  5
94
330
1F
100
AcDbEntity
  8
0
  6
Continuous
 62
     7
370
    25
100
AcDbPolyline
 90
       84
 70
   128
 43
0.0
 10
-14.1614016877
 20
181.0949946374
 10
-14.0898016081
 20
179.7580624551
 10
-13.8754167394
 20
178.4287745684
 10
-13.5194689767
 20
177.114760372
 10
-13.0240035043
 20
175.8235598534
 10
-12.3918534057
 20
174.5625341862
 10
-11.6266415254
 20
173.338940236
 10
-10.7327506677
 20
172.1597666472
 10
-9.7153012441
 20
171.031763646
 10
-8.5801214711
 20
169.9614132374
 10
-7.3337119804
 20
168.9548397988
 10
-5.9832141535
 20
168.0177951783
 10
-4.5363626243
 20
167.1556586951
 10
-3.0014443011
 20
166.3733626336
 10
-1.3872508691
 20
165.6753922433
 10
0.29697057
 20
165.0657410353
 10
2.0415733768
 20
164.5479107827
 10
3.8365649259
 20
164.1248519152
 10
5.6716634161
 20
163.7990082234
 10
7.5363577078
 20
163.5722274512
 10
9.4199668118
 20
163.4458059996
 10
11.3117018798
 20
163.4204889268
 10
13.200727032
 20
163.496410343
 10
15.0762221045
 20
163.6731381148
 10
16.9274445823
 20
163.9496440619
 10
18.7437904267
 20
164.3243635625
 10
20.5148558332
 20
164.7951508492
 10
22.230497302
 20
165.3592939109
 10
23.8808865859
 20
166.0135740966
 10
25.4565707608
 20
166.7542363137
 10
26.9485253109
 20
167.5770337313
 10
28.3482025577
 20
168.4772724837
 10
29.6475856765
 20
169.4497818679
 10
30.8392333998
 20
170.4889888495
 10
31.9163209959
 20
171.5889627665
 10
32.8726756586
 20
172.7433706254
 10
33.7028212114
 20
173.9456112117
 10
34.4020023211
 20
175.1888150901
 10
34.9662143006
 20
176.4658446044
 10
35.3922273232
 20
177.7693832844
 10
35.6775975986
 20
179.0919805497
 10
35.8206934496
 20
180.426051709
 10
35.8206934496
 20
181.7639524668
 10
35.6775975986
 20
183.098008725
 10
35.3922273232
 20
184.4206059903
 10
34.9662143006
 20
185.7241446704
 10
34.4020023211
 20
187.0011741847
 10
33.7028212114
 20
188.2443780631
 10
32.8726756586
 20
189.4466335505
 10
31.9163209959
 20
190.6010414094
 10
30.8392333998
 20
191.7010004252
 10
29.6475856765
 20
192.7402074069
 10
28.3482025577
 20
193.712716791
 10
26.9485253109
 20
194.6129555434
 10
25.4565707608
 20
195.435752961
 10
23.8808865859
 20
196.1764151782
 10
22.230497302
 20
196.8306953639
 10
20.5148558332
 20
197.3948384255
 10
18.7437904267
 20
197.8656257123
 10
16.9274445823
 20
198.2403452128
 10
15.0762221045
 20
198.5168660611
 10
13.200727032
 20
198.6935789317
 10
11.3117018798
 20
198.769500348
 10
9.4199668118
 20
198.7441832751
 10
7.5363577078
 20
198.6177767247
 10
5.6716634161
 20
198.3909959525
 10
3.8365649259
 20
198.0651373595
 10
2.0415733768
 20
197.6420933932
 10
0.29697057
 20
197.1242482394
 10
-1.3872508691
 20
196.5146119326
 10
-3.0014443011
 20
195.8166415423
 10
-4.5363626243
 20
195.0343454808
 10
-5.9832141535
 20
194.1722089976
 10
-7.3337119804
 20
193.2351643771
 10
-8.5801214711
 20
192.2285760373
 10
-9.7153012441
 20
191.1582256287
 10
-10.7327506677
 20
190.0302375287
 10
-11.6266415254
 20
188.8510639399
 10
-12.3918534057
 20
187.6274550885
 10
-13.0240035043
 20
186.3664443225
 10
-13.5194689767
 20
185.0752289027
 10
-13.8754167394
 20
183.7612147063
 10
-14.0898016081
 20
182.4319417208
 10
-14.1614016877
 20
181.0949946374
  0
LWPOLYLINE
  5
95
330
1F
100
AcDbEntity
  8
0
  6
Continuous
 62
     7
370
    25
100
AcDbPolyline
 90
       76
 70
   128
 43
0.0
 10
-9.5614020513
 20
181.0949946374
 10
-9.4898559884
 20
182.3020482987
 10
-9.2757207141
 20
183.5006381005
 10
-8.9204975204
 20
184.6823448867
 10
-8.4266786264
 20
185.8388985127
 10
-7.797728552
 20
186.9621629447
 10
-7.0380580412
 20
188.0442852706
 10
-6.1529942588
 20
189.0776658982
 10
-5.148747264
 20
190.0550479621
 10
-4.0323615805
 20
190.969576928
 10
-2.8116659061
 20
191.8148452967
 10
-1.4952228205
 20
192.5849224061
 10
-0.0922682495
 20
193.2744140357
 10
1.387359315
 20
193.878462407
 10
2.9332802831
 20
194.3928504914
 10
4.5346521972
 20
194.8139722079
 10
6.1802409789
 20
195.1388473242
 10
7.8585049803
 20
195.3652257651
 10
9.5576720512
 20
195.4915131062
 10
11.2658240567
 20
195.5168152779
 10
12.9709792989
 20
195.4409534663
 10
14.6611775006
 20
195.2644641131
 10
16.3245631582
 20
194.9885989159
 10
17.9494686625
 20
194.6152652234
 10
19.5244957893
 20
194.1471154422
 10
21.0385990529
 20
193.5873980254
 10
22.4811553224
 20
192.9400617808
 10
23.8420476406
 20
192.2096366614
 10
25.1117308824
 20
191.4012486666
 10
26.2812978788
 20
190.5205751389
 10
27.3425455405
 20
189.573785159
 10
28.2880298062
 20
188.5675246447
 10
29.1111177965
 20
187.5088567465
 10
29.8060390367
 20
186.4051873416
 10
30.3679171218
 20
185.2642799348
 10
30.7928088321
 20
184.0941215485
 10
31.0777376606
 20
182.9029227227
 10
31.220704989
 20
181.6990579098
 10
31.220704989
 20
180.490946266
 10
31.0777376606
 20
179.287066552
 10
30.7928088321
 20
178.0958826274
 10
30.3679171218
 20
176.9257242411
 10
29.8060390367
 20
175.7848019332
 10
29.1111177965
 20
174.6811474293
 10
28.2880298062
 20
173.62246463
 10
27.3425455405
 20
172.6162041157
 10
26.2812978788
 20
171.6694141358
 10
25.1117308824
 20
170.7887406081
 10
23.8420476406
 20
169.9803675145
 10
22.4811553224
 20
169.2499423951
 10
21.0385990529
 20
168.6026061505
 10
19.5244957893
 20
168.0428887337
 10
17.9494686625
 20
167.5747240514
 10
16.3245631582
 20
167.20140526
 10
14.6611775006
 20
166.9255251616
 10
12.9709792989
 20
166.7490358084
 10
11.2658240567
 20
166.673188898
 10
9.5576720512
 20
166.6984761685
 10
7.8585049803
 20
166.8247635096
 10
6.1802409789
 20
167.0511419505
 10
4.5346521972
 20
167.376031968
 10
2.9332802831
 20
167.7971387833
 10
1.387359315
 20
168.3115268677
 10
-0.0922682495
 20
168.9155901402
 10
-1.4952228205
 20
169.6050668687
 10
-2.8116659061
 20
170.375143978
 10
-4.0323615805
 20
171.2204272479
 10
-5.148747264
 20
172.1349562138
 10
-6.1529942588
 20
173.1123382777
 10
-7.0380580412
 20
174.1457040042
 10
-7.797728552
 20
175.2278263301
 10
-8.4266786264
 20
176.3511056632
 10
-8.9204975204
 20
177.5076443881
 10
-9.2757207141
 20
178.6893660754
 10
-9.4898559884
 20
179.887940976
 10
-9.5614020513
 20
181.0949946374
  0
LINE
  5
96
330
1F
100
AcDbEntity
  8
0
  6
Continuous
 62
     7
370
    25
100
AcDbLine
 10
-14.1614016877
 20
28.0949974984
 30
0.0
 11
35.8385990574
 21
28.0949974984
 31
0.0
  0
LWPOLYLINE
  5
97
330
1F
100
AcDbEntity
  8
0
  6
Continuous
 62
     1
370
    25
100
AcDbPolyline
 90
       22
 70
   128
 43
0.0
 10
10.8385986849
 20
106.7396605939
 10
12.7293173889
 20
106.790287289
 10
14.6092062085
 20
106.9418842524
 10
16.4674974247
 20
107.1935723156
 10
18.2935462533
 20
107.543920967
 10
20.0768948733
 20
107.9909185499
 10
21.8073266758
 20
108.5320020646
 10
23.4749305262
 20
109.1640795201
 10
25.07015478
 20
109.8835224837
 10
26.5838622316
 20
110.6862182349
 10
28.0073813363
 20
111.5675623149
 10
29.3325602277
 20
112.5225106806
 10
30.5518067642
 20
113.5455871552
 10
31.6581378891
 20
114.6309430331
 10
32.6452168836
 20
115.7723496288
 10
33.5073887571
 20
116.9632727832
 10
34.2397174998
 20
118.1968952149
 10
34.8380047097
 20
119.4661388725
 10
35.2988268449
 20
120.763754341
 10
35.6195426746
 20
122.0822910398
 10
35.7983156307
 20
123.4142015308
 10
35.8385990574
 20
124.4173253506
  0
LWPOLYLINE
  5
98
330
1F
100
AcDbEntity
  8
0
  6
Continuous
 62
     1
370
    25
100
AcDbPolyline
 90
       22
 70
   128
 43
0.0
 10
-14.1614016877
 20
124.4173253506
 10
-14.121118261
 20
123.4142015308
 10
-13.9423453049
 20
122.0822910398
 10
-13.6216294752
 20
120.763754341
 10
-13.16080734
 20
119.4661388725
 10
-12.5625201301
 20
118.1968952149
 10
-11.8301913874
 20
116.9632727832
 10
-10.9680195139
 20
115.7723496288
 10
-9.9809405194
 20
114.6309430331
 10
-8.8746093945
 20
113.5455871552
 10
-7.655362858
 20
112.5225106806
 10
-6.3301839666
 20
111.5675623149
 10
-4.9066648619
 20
110.6862182349
 10
-3.3929574103
 20
109.8835224837
 10
-1.7977331565
 20
109.1640795201
 10
-0.1301293061
 20
108.5320020646
 10
1.6003024964
 20
107.9909185499
 10
3.3836511164
 20
107.543920967
 10
5.209699945
 20
107.1935723156
 10
7.0679911612
 20
106.9418842524
 10
8.9478799808
 20
106.790287289
 10
10.8385986849
 20
106.7396605939
  0
LINE
  5
99
330
1F
100
AcDbEntity
  8
0
  6
Continuous
 62
     1
370
    25
100
AcDbLine
 10
10.8385986849
 20
106.7396605939
 30
0.0
 11
35.8385990574
 21
106.7396605939
 31
0.0
  0
LINE
  5
9A
330
1F
100
AcDbEntity
  8
0
  6
Continuous
 62
     1
370
    25
100
AcDbLine
 10
-14.1614016877
 20
106.7396605939
 30
0.0
 11
10.8385986849
 21
106.7396605939
 31
0.0
  0
LINE
  5
9B
330
1F
100
AcDbEntity
  8
0
  6
Continuous
 62
     7
370
    25
100
AcDbLine
 10
239.106392366
 20
106.7396605939
 30
0.0
 11
239.106392366
 21
28.0949974984
 31
0.0
  0
LINE
  5
9C
330
1F
100
AcDbEntity
  8
0
  6
Continuous
 62
     7
370
    25
100
AcDbLine
 10
289.106393111
 20
28.0949974984
 30
0.0
 11
289.106393111
 21
106.7396605939
 31
0.0
  0
LINE
  5
9D
330
1F
100
AcDbEntity
  8
0
  6
Continuous
 62
     7
370
    25
100
AcDbLine
 10
289.106393111
 20
106.7396605939
 30
0.0
 11
289.106393111
 21
124.4173253506
 31
0.0
  0
LINE
  5
9E
330
1F
100
AcDbEntity
  8
0
  6
Continuous
 62
     7
370
    25
100
AcDbLine
 10
239.106392366
 20
124.4173253506
 30
0.0
 11
239.106392366
 21
106.7396605939
 31
0.0
  0
LINE
  5
9F
330
1F
100
AcDbEntity
  8
0
  6
Continuous
 62
     7
370
    25
100
AcDbLine
 10
239.106392366
 20
181.0949946374
 30
0.0
 11
239.106392366
 21
124.4173253506
 31
0.0
  0
LINE
  5
A0
330
1F
100
AcDbEntity
  8
0
  6
Continuous
 62
     7
370
    25
100
AcDbLine
 10
289.106393111
 20
124.4173253506
 30
0.0
 11
289.106393111
 21
181.0949946374
 31
0.0
  0
LINE
  5
A1
330
1F
100
AcDbEntity
  8
0
  6
Continuous
 62
     7
370
    25
100
AcDbLine
 10
239.106392366
 20
28.0949974984
 30
0.0
 11
289.106393111
 21
28.0949974984
 31
0.0
  0
LWPOLYLINE
  5
A2
330
1F
100
AcDbEntity
  8
0
  6
Continuous
 62
     7
370
    25
100
AcDbPolyline
 90
       44
 70
   128
 43
0.0
 10
239.106392366
 20
181.0949946374
 10
239.1242979738
 20
181.7639524668
 10
239.2673938247
 20
183.098008725
 10
239.5527641001
 20
184.4206059903
 10
239.9787771228
 20
185.7241446704
 10
240.5429891023
 20
187.0011741847
 10
241.2421702119
 20
188.2443780631
 10
242.0723157647
 20
189.4466335505
 10
243.0286704275
 20
190.6010414094
 10
244.1057580235
 20
191.7010004252
 10
245.2974057468
 20
192.7402074069
 10
246.5967888656
 20
193.712716791
 10
247.9964661124
 20
194.6129555434
 10
249.4884206625
 20
195.435752961
 10
251.0641048374
 20
196.1764151782
 10
252.7144941213
 20
196.8306953639
 10
254.4301355901
 20
197.3948384255
 10
256.2012009966
 20
197.8656257123
 10
258.017546841
 20
198.2403452128
 10
259.8687693189
 20
198.5168660611
 10
261.7442643913
 20
198.6935789317
 10
263.6332895435
 20
198.769500348
 10
265.5250246116
 20
198.7441832751
 10
267.4086337155
 20
198.6177767247
 10
269.2733280073
 20
198.3909959525
 10
271.1084264974
 20
198.0651373595
 10
272.9034180465
 20
197.6420933932
 10
274.6480208534
 20
197.1242482394
 10
276.3322422924
 20
196.5146119326
 10
277.9464357245
 20
195.8166415423
 10
279.4813540476
 20
195.0343454808
 10
280.9282055768
 20
194.1722089976
 10
282.2787034037
 20
193.2351643771
 10
283.5251128944
 20
192.2285760373
 10
284.6602926674
 20
191.1582256287
 10
285.6777420911
 20
190.0302375287
 10
286.5716329488
 20
188.8510639399
 10
287.336844829
 20
187.6274550885
 10
287.9689949277
 20
186.3664443225
 10
288.4644604
 20
185.0752289027
 10
288.8204081627
 20
183.7612147063
 10
289.0347930315
 20
182.4319417208
 10
289.106393111
 20
181.0949946374
 10
289.106393111
 20
181.0949946374
  0
LINE
  5
A3
330
1F
100
AcDbEntity
  8
0
  6
Continuous
 62
     1
370
    25
100
AcDbLine
 10
239.106392366
 20
106.7396605939
 30
0.0
 11
289.106393111
 21
106.7396605939
 31
0.0
  0
LWPOLYLINE
  5
A4
330
1F
100
AcDbEntity
  8
0
  6
Continuous
 62
     1
370
    25
100
AcDbPolyline
 90
       44
 70
   128
 43
0.0
 10
239.106392366
 20
124.4173253506
 10
239.1108701649
 20
124.75186387
 10
239.2182367566
 20
126.0876039594
 10
239.4681590321
 20
127.4137775034
 10
239.8592083427
 20
128.7227923602
 10
240.3891420635
 20
130.0071457952
 10
241.0549278083
 20
131.2594766349
 10
241.8527490171
 20
132.4726174205
 10
242.7780384841
 20
133.6396167606
 10
243.8254932585
 20
134.7537914842
 10
244.9891156229
 20
135.8087638944
 10
246.2622391703
 20
136.7984841198
 10
247.6375735077
 20
137.717289719
 10
249.1072405773
 20
138.5599131316
 10
250.6628202918
 20
139.3215263814
 10
252.2954036194
 20
139.9977708787
 10
253.9956391501
 20
140.5847723216
 10
255.7537880438
 20
141.0791704982
 10
257.5597808408
 20
141.4781267375
 10
259.403271013
 20
141.7793611616
 10
261.2737008548
 20
141.9811526865
 10
263.1603558493
 20
142.0823390216
 10
265.0524296277
 20
142.0823390216
 10
266.9390846221
 20
141.9811526865
 10
268.809514464
 20
141.7793611616
 10
270.6530046361
 20
141.4781267375
 10
272.4589974331
 20
141.0791704982
 10
274.2171463269
 20
140.5847723216
 10
275.9173818576
 20
139.9977708787
 10
277.5499651852
 20
139.3215263814
 10
279.1055448997
 20
138.5599131316
 10
280.5752119693
 20
137.717289719
 10
281.9505463066
 20
136.7984841198
 10
283.2236698541
 20
135.8087638944
 10
284.3872922185
 20
134.7537914842
 10
285.4347469928
 20
133.6396167606
 10
286.3600364598
 20
132.4726174205
 10
287.1578576687
 20
131.2594766349
 10
287.8236434134
 20
130.0071457952
 10
288.3535771343
 20
128.7227923602
 10
288.7446264448
 20
127.4137775034
 10
288.9945487204
 20
126.0876039594
 10
289.1019153121
 20
124.75186387
 10
289.106393111
 20
124.4173253506
  0
LINE
  5
A5
330
1F
100
AcDbEntity
  8
0
  6
Continuous
 62
     7
370
    25
100
AcDbLine
 10
183.5455682545
 20
293.8233886329
 30
0.0
 11
126.8678957081
 21
293.8233886329
 31
0.0
  0
LINE
  5
A6
330
1F
100
AcDbEntity
  8
0
  6
Continuous
 62
     7
370
    25
100
AcDbLine
 10
126.8678957081
 20
243.8233878879
 30
0.0
 11
183.5455682545
 21
243.8233878879
 31
0.0
  0
LINE
  5
A7
330
1F
100
AcDbEntity
  8
0
  6
Continuous
 62
     7
370
    25
100
AcDbLine
 10
126.8678957081
 20
293.8233886329
 30
0.0
 11
119.5455652147
 21
293.8233886329
 31
0.0
  0
LINE
  5
A8
330
1F
100
AcDbEntity
  8
0
  6
Continuous
 62
     7
370
    25
100
AcDbLine
 10
119.5455652147
 20
243.8233878879
 30
0.0
 11
126.8678957081
 21
243.8233878879
 31
0.0
  0
CIRCLE
  5
A9
330
1F
100
AcDbEntity
  8
0
  6
Continuous
 62
     7
370
    25
100
AcDbCircle
 10
119.5455652147
 20
268.8233882604
 30
0.0
 40
20.40000000000003
  0
CIRCLE
  5
AA
330
1F
100
AcDbEntity
  8
0
  6
Continuous
 62
     7
370
    25
100
AcDbCircle
 10
119.5455652147
 20
268.8233882604
 30
0.0
 40
25.0
  0
LWPOLYLINE
  5
AB
330
1F
100
AcDbEntity
  8
0
  6
Continuous
 62
     7
370
    25
100
AcDbPolyline
 90
       43
 70
   128
 43
0.0
 10
183.5455682545
 20
293.8233886329
 10
184.8825078874
 20
293.7517885534
 10
186.2117883234
 20
293.5374036847
 10
187.5257950692
 20
293.1814559219
 10
188.817010489
 20
292.6859904496
 10
190.0780287056
 20
292.0538403509
 10
191.3016301065
 20
291.2886284707
 10
192.4808036952
 20
290.394737613
 10
193.6087917953
 20
289.3772881893
 10
194.6791496544
 20
288.2421084164
 10
195.6857305436
 20
286.9956989257
 10
196.6227677136
 20
285.6452010987
 10
197.4849116473
 20
284.1983495695
 10
198.2672002583
 20
282.6634312464
 10
198.9651706486
 20
281.0492378143
 10
199.5748218565
 20
279.3650163753
 10
200.0926521092
 20
277.6204135684
 10
200.5157109766
 20
275.8254220193
 10
200.841562119
 20
273.9903235292
 10
201.0683354407
 20
272.1256292375
 10
201.1947494416
 20
270.2420201335
 10
201.2200665145
 20
268.3502850654
 10
201.1441525488
 20
266.4612599132
 10
200.9674247771
 20
264.5857648408
 10
200.6909113794
 20
262.7345423629
 10
200.3161918788
 20
260.9181965185
 10
199.8454120426
 20
259.147131112
 10
199.281268981
 20
257.4314896433
 10
198.6269887953
 20
255.7811003594
 10
197.8863265782
 20
254.2054161845
 10
197.0635217099
 20
252.7134616343
 10
196.1632829576
 20
251.3137843875
 10
195.190781024
 20
250.0144012688
 10
194.1515665918
 20
248.8227535454
 10
193.0516075759
 20
247.7456659494
 10
191.8971922665
 20
246.7893112866
 10
190.6949442296
 20
245.9591657339
 10
189.4517478018
 20
245.2599846242
 10
188.1747182875
 20
244.6957726447
 10
186.8711721568
 20
244.269759622
 10
185.5485823422
 20
243.9843893466
 10
184.2145111828
 20
243.8412934957
 10
183.5455682545
 20
243.8233878879
  0
LWPOLYLINE
  5
AC
330
1F
100
AcDbEntity
  8
0
  6
Continuous
 62
     1
370
    25
100
AcDbPolyline
 90
       22
 70
   128
 43
0.0
 10
144.5455655872
 20
268.8233882604
 10
144.4949370294
 20
266.9326695563
 10
144.3433437913
 20
265.0527807368
 10
144.0916520028
 20
263.1944895206
 10
143.7413033514
 20
261.3684406919
 10
143.2943057685
 20
259.585092072
 10
142.7532185285
 20
257.8546602694
 10
142.1211429357
 20
256.1870564191
 10
141.4016981094
 20
254.5918321652
 10
140.5990042209
 20
253.0781247137
 10
139.7176601409
 20
251.654605609
 10
138.7627136379
 20
250.3294267176
 10
137.7396353005
 20
249.1101801811
 10
136.654283148
 20
248.0038490562
 10
135.5128765522
 20
247.0167700616
 10
134.3219524666
 20
246.1545981882
 10
133.0883318975
 20
245.4222694455
 10
131.8190817206
 20
244.8239822356
 10
130.5214709087
 20
244.3631601004
 10
129.2029323473
 20
244.0424442706
 10
127.8710199936
 20
243.8636713145
 10
126.8678957081
 20
243.8233878879
  0
LWPOLYLINE
  5
AD
330
1F
100
AcDbEntity
  8
0
  6
Continuous
 62
     1
370
    25
100
AcDbPolyline
 90
       22
 70
   128
 43
0.0
 10
126.8678957081
 20
293.8233886329
 10
127.8710199936
 20
293.7831052063
 10
129.2029323473
 20
293.6043322502
 10
130.5214709087
 20
293.2836164204
 10
131.8190817206
 20
292.8227942852
 10
133.0883318975
 20
292.2245070753
 10
134.3219524666
 20
291.4921783326
 10
135.5128765522
 20
290.6300064592
 10
136.654283148
 20
289.6429274646
 10
137.7396353005
 20
288.5365963397
 10
138.7627136379
 20
287.3173498032
 10
139.7176601409
 20
285.9921709118
 10
140.5990042209
 20
284.5686518071
 10
141.4016981094
 20
283.0549443556
 10
142.1211429357
 20
281.4597201018
 10
142.7532185285
 20
279.7921162514
 10
143.2943057685
 20
278.0616844488
 10
143.7413033514
 20
276.2783358289
 10
144.0916520028
 20
274.4522870002
 10
144.3433437913
 20
272.593995784
 10
144.4949370294
 20
270.7141069645
 10
144.5455655872
 20
268.8233882604
  0
LWPOLYLINE
  5
AE
330
1F
100
AcDbEntity
  8
0
  6
Continuous
 62
     1
370
    25
100
AcDbPolyline
 90
       34
 70
   128
 43
0.0
 10
123.8348872817
 20
288.7673519967
 10
123.280549417
 20
288.5824844656
 10
122.1240013788
 20
288.0886655716
 10
121.0007284486
 20
287.4597154973
 10
119.9186093823
 20
286.7000449864
 10
118.8852345754
 20
285.8149812041
 10
117.9078523952
 20
284.8107342092
 10
116.9933185398
 20
283.6943485258
 10
116.1480476099
 20
282.4736528514
 10
115.3779688708
 20
281.1572097657
 10
114.6884837604
 20
279.7542551948
 10
114.0844284042
 20
278.2746276302
 10
113.5700398541
 20
276.7287066622
 10
113.1489260538
 20
275.127334748
 10
112.8240411586
 20
273.4817459663
 10
112.5976636491
 20
271.8034819649
 10
112.4713818959
 20
270.104314894
 10
112.4460811212
 20
268.3961628886
 10
112.5219387419
 20
266.6910076463
 10
112.6984234384
 20
265.0008094447
 10
112.9742965518
 20
263.3374237871
 10
113.3476232595
 20
261.7125182828
 10
113.8157851479
 20
260.137491156
 10
114.375497908
 20
258.6233878923
 10
115.0228360153
 20
257.1808316229
 10
115.7532588064
 20
255.8199393047
 10
116.561642843
 20
254.5502560628
 10
117.4423175349
 20
253.3806890664
 10
118.3891061178
 20
252.3194414047
 10
119.3953673015
 20
251.3739571391
 10
120.454042854
 20
250.5508691488
 10
121.5577069621
 20
249.8559479086
 10
122.698618327
 20
249.2940698234
 10
123.8348872817
 20
248.8794245241
  0
INSERT
  5
BA
330
1F
100
AcDbEntity
  8
FORMAT
 62
     7
100
AcDbBlockReference
  2
SW_CENTERMARKSYMBOL_0
 10
119.5455652147
 20
268.8233882604
 30
0.0
  0
LINE
  5
BB
330
1F
100
AcDbEntity
  8
0
  6
Continuous
 62
     7
370
    25
100
AcDbLine
 10
183.5455682545
 20
-35.933581219
 30
0.0
 11
126.8678957081
 21
-35.933581219
 31
0.0
  0
LINE
  5
BC
330
1F
100
AcDbEntity
  8
0
  6
Continuous
 62
     7
370
    25
100
AcDbLine
 10
126.8678957081
 20
-85.9335819641
 30
0.0
 11
183.5455682545
 21
-85.9335819641
 31
0.0
  0
LINE
  5
BD
330
1F
100
AcDbEntity
  8
0
  6
Continuous
 62
     7
370
    25
100
AcDbLine
 10
119.5455652147
 20
-85.9335819641
 30
0.0
 11
126.8678957081
 21
-85.9335819641
 31
0.0
  0
LINE
  5
BE
330
1F
100
AcDbEntity
  8
0
  6
Continuous
 62
     7
370
    25
100
AcDbLine
 10
126.8678957081
 20
-35.933581219
 30
0.0
 11
119.5455652147
 21
-35.933581219
 31
0.0
  0
LWPOLYLINE
  5
BF
330
1F
100
AcDbEntity
  8
0
  6
Continuous
 62
     7
370
    25
100
AcDbPolyline
 90
       84
 70
   128
 43
0.0
 10
183.5455682545
 20
-85.9335819641
 10
184.8825078874
 20
-85.8619818846
 10
186.2117883234
 20
-85.6475970158
 10
187.5257950692
 20
-85.2916492531
 10
188.817010489
 20
-84.7961837807
 10
190.0780287056
 20
-84.1640336821
 10
191.3016301065
 20
-83.3988218019
 10
192.4808036952
 20
-82.5049309442
 10
193.6087917953
 20
-81.4874815205
 10
194.6791496544
 20
-80.3523017475
 10
195.6857305436
 20
-79.1058922568
 10
196.6227677136
 20
-77.7553944299
 10
197.4849116473
 20
-76.3085429007
 10
198.2672002583
 20
-74.7736245775
 10
198.9651706486
 20
-73.1594311455
 10
199.5748218565
 20
-71.4752097064
 10
200.0926521092
 20
-69.7306068996
 10
200.5157109766
 20
-67.9356153505
 10
200.841562119
 20
-66.1005168604
 10
201.0683354407
 20
-64.2358225686
 10
201.1947494416
 20
-62.3522134647
 10
201.2200665145
 20
-60.4604783966
 10
201.1441525488
 20
-58.5714532444
 10
200.9674247771
 20
-56.6959581719
 10
200.6909113794
 20
-54.8447356941
 10
200.3161918788
 20
-53.0283898497
 10
199.8454120426
 20
-51.2573244432
 10
199.281268981
 20
-49.5416829744
 10
198.6269887953
 20
-47.8912936905
 10
197.8863265782
 20
-46.3156095156
 10
197.0635217099
 20
-44.8236549655
 10
196.1632829576
 20
-43.4239777187
 10
195.190781024
 20
-42.1245945999
 10
194.1515665918
 20
-40.9329468766
 10
193.0516075759
 20
-39.8558592805
 10
191.8971922665
 20
-38.8995046178
 10
190.6949442296
 20
-38.069359065
 10
189.4517478018
 20
-37.3701779553
 10
188.1747182875
 20
-36.8059659758
 10
186.8711721568
 20
-36.3799529532
 10
185.5485823422
 20
-36.0945826778
 10
184.2145111828
 20
-35.9514868269
 10
182.8766178756
 20
-35.9514868269
 10
181.5425504415
 20
-36.0945826778
 10
180.2199569016
 20
-36.3799529532
 10
178.9164107709
 20
-36.8059659758
 10
177.6393812566
 20
-37.3701779553
 10
176.3961811035
 20
-38.069359065
 10
175.1939330666
 20
-38.8995046178
 10
174.0395252078
 20
-39.8558592805
 10
172.9395624666
 20
-40.9329468766
 10
171.9003517597
 20
-42.1245945999
 10
170.9278423755
 20
-43.4239777187
 10
170.0276073485
 20
-44.8236549655
 10
169.2048024802
 20
-46.3156095156
 10
168.4641402631
 20
-47.8912936905
 10
167.8098638027
 20
-49.5416829744
 10
167.2457170158
 20
-51.2573244432
 10
166.7749371796
 20
-53.0283898497
 10
166.400217679
 20
-54.8447356941
 10
166.1237042814
 20
-56.6959581719
 10
165.9469802349
 20
-58.5714532444
 10
165.8710625439
 20
-60.4604783966
 10
165.8963796168
 20
-62.3522134647
 10
166.0227898925
 20
-64.2358225686
 10
166.2495706647
 20
-66.1005168604
 10
166.5754218071
 20
-67.9356153505
 10
166.9984769492
 20
-69.7306068996
 10
167.5163109272
 20
-71.4752097064
 10
168.1259584098
 20
-73.1594311455
 10
168.8239288001
 20
-74.7736245775
 10
169.6062211364
 20
-76.3085429007
 10
170.4683613448
 20
-77.7553944299
 10
171.4054022401
 20
-79.1058922568
 10
172.4119831293
 20
-80.3523017475
 10
173.4823372631
 20
-81.4874815205
 10
174.6103290885
 20
-82.5049309442
 10
175.7895026772
 20
-83.3988218019
 10
177.0131040781
 20
-84.1640336821
 10
178.2741222947
 20
-84.7961837807
 10
179.5653339892
 20
-85.2916492531
 10
180.8793444603
 20
-85.6475970158
 10
182.2086286216
 20
-85.8619818846
 10
183.5455682545
 20
-85.9335819641
  0
LWPOLYLINE
  5
C0
330
1F
100
AcDbEntity
  8
0
  6
Continuous
 62
     7
370
    25
100
AcDbPolyline
 90
       76
 70
   128
 43
0.0
 10
183.5455682545
 20
-81.3335823277
 10
182.3385145931
 20
-81.2620362649
 10
181.1399285166
 20
-81.0479009906
 10
179.9582180052
 20
-80.6926777968
 10
178.8016718297
 20
-80.1988589028
 10
177.6783962219
 20
-79.5699088285
 10
176.5962776213
 20
-78.8102383176
 10
175.5629044442
 20
-77.9251745352
 10
174.5855223804
 20
-76.9209275404
 10
173.6709896891
 20
-75.804541857
 10
172.8257175951
 20
-74.5838461825
 10
172.0556367605
 20
-73.2674030969
 10
171.3661525815
 20
-71.8644485259
 10
170.7620967596
 20
-70.3848209614
 10
170.2477086752
 20
-68.8388999933
 10
169.8265944092
 20
-67.2375280792
 10
169.5017118423
 20
-65.5919392975
 10
169.2753334015
 20
-63.9136752961
 10
169.1490497856
 20
-62.2145082252
 10
169.1237513392
 20
-60.5063562197
 10
169.1996094256
 20
-58.8012009775
 10
169.3760913282
 20
-57.1110027758
 10
169.6519677012
 20
-55.4476171182
 10
170.0252939432
 20
-53.8227116139
 10
170.4934549003
 20
-52.2476844871
 10
171.0531685918
 20
-50.7335812235
 10
171.7005048363
 20
-49.291024954
 10
172.4309299557
 20
-47.9301326358
 10
173.2393104999
 20
-46.660449394
 10
174.1199877529
 20
-45.4908823976
 10
175.0667740076
 20
-44.4296347359
 10
176.0730382471
 20
-43.4841504702
 10
177.1317135959
 20
-42.6610624799
 10
178.2353755503
 20
-41.9661412397
 10
179.3762866824
 20
-41.4042631546
 10
180.5464450686
 20
-40.9793714443
 10
181.7376364439
 20
-40.6944426158
 10
182.9415124326
 20
-40.5514752874
 10
184.1496240764
 20
-40.5514752874
 10
185.3534963398
 20
-40.6944426158
 10
186.5446877151
 20
-40.9793714443
 10
187.7148461013
 20
-41.4042631546
 10
188.8557535081
 20
-41.9661412397
 10
189.9594154625
 20
-42.6610624799
 10
191.0180908113
 20
-43.4841504702
 10
192.0243513255
 20
-44.4296347359
 10
192.9711413055
 20
-45.4908823976
 10
193.8518148332
 20
-46.660449394
 10
194.660202828
 20
-47.9301326358
 10
195.3906279474
 20
-49.291024954
 10
196.0379641919
 20
-50.7335812235
 10
196.5976741581
 20
-52.2476844871
 10
197.0658388405
 20
-53.8227116139
 10
197.4391650825
 20
-55.4476171182
 10
197.7150377302
 20
-57.1110027758
 10
197.8915196328
 20
-58.8012009775
 10
197.9673814445
 20
-60.5063562197
 10
197.9420792728
 20
-62.2145082252
 10
197.8157993822
 20
-63.9136752961
 10
197.5894209414
 20
-65.5919392975
 10
197.2645383744
 20
-67.2375280792
 10
196.8434241085
 20
-68.8388999933
 10
196.3290360241
 20
-70.3848209614
 10
195.7249802022
 20
-71.8644485259
 10
195.0354885726
 20
-73.2674030969
 10
194.2654114633
 20
-74.5838461825
 10
193.4201430946
 20
-75.804541857
 10
192.505606678
 20
-76.9209275404
 10
191.5282246142
 20
-77.9251745352
 10
190.4948514371
 20
-78.8102383176
 10
189.4127291112
 20
-79.5699088285
 10
188.2894572287
 20
-80.1988589028
 10
187.1329110532
 20
-80.6926777968
 10
185.951204267
 20
-81.0479009906
 10
184.7526144653
 20
-81.2620362649
 10
183.5455682545
 20
-81.3335823277
  0
ARC
  5
C1
330
1F
100
AcDbEntity
  8
0
  6
Continuous
 62
     7
370
    25
100
AcDbCircle
 10
119.5455652147
 20
-60.9335815916
 30
0.0
 40
25.00000000000001
100
AcDbArc
 50
90.0
 51
270.0
  0
LWPOLYLINE
  5
C2
330
1F
100
AcDbEntity
  8
0
  6
Continuous
 62
     1
370
    25
100
AcDbPolyline
 90
       44
 70
   128
 43
0.0
 10
126.8678957081
 20
-35.933581219
 10
126.5333613797
 20
-35.938059018
 10
125.197618962
 20
-36.0454256097
 10
123.8714435554
 20
-36.2953478852
 10
122.5624314926
 20
-36.6863971958
 10
121.2780810843
 20
-37.2163309166
 10
120.0257484402
 20
-37.8821166614
 10
118.8126070143
 20
-38.6799378702
 10
117.6456055787
 20
-39.6052273372
 10
116.5314286432
 20
-40.6526821116
 10
115.4764580957
 20
-41.816304476
 10
114.4867364733
 20
-43.0894280234
 10
113.5679332024
 20
-44.4647623608
 10
112.7253107212
 20
-45.9344294304
 10
111.9636956087
 20
-47.4900091449
 10
111.2874506458
 20
-49.1225924724
 10
110.7004492029
 20
-50.8228280032
 10
110.2060528888
 20
-52.5809768969
 10
109.807094787
 20
-54.3869696939
 10
109.5058585002
 20
-56.2304598661
 10
109.3040716319
 20
-58.1008897079
 10
109.2028880908
 20
-59.9875447023
 10
109.2028880908
 20
-61.8796184808
 10
109.3040716319
 20
-63.7662734752
 10
109.5058585002
 20
-65.636703317
 10
109.807094787
 20
-67.4801934892
 10
110.2060528888
 20
-69.2861862862
 10
110.7004492029
 20
-71.0443351799
 10
111.2874506458
 20
-72.7445707107
 10
111.9636956087
 20
-74.3771540383
 10
112.7253107212
 20
-75.9327337527
 10
113.5679332024
 20
-77.4024008224
 10
114.4867364733
 20
-78.7777351597
 10
115.4764580957
 20
-80.0508587071
 10
116.5314286432
 20
-81.2144810715
 10
117.6456055787
 20
-82.2619358459
 10
118.8126070143
 20
-83.1872253129
 10
120.0257484402
 20
-83.9850465217
 10
121.2780810843
 20
-84.6508322665
 10
122.5624314926
 20
-85.1807659874
 10
123.8714435554
 20
-85.5718152979
 10
125.197618962
 20
-85.8217375735
 10
126.5333613797
 20
-85.9291041652
 10
126.8678957081
 20
-85.9335819641
  0
INSERT
  5
CE
330
1F
100
AcDbEntity
  8
FORMAT
 62
     7
100
AcDbBlockReference
  2
SW_CENTERMARKSYMBOL_1
 10
119.5455652147
 20
-60.9335815916
 30
0.0
  0
LINE
  5
CF
330
1F
100
AcDbEntity
  8
0
  6
Continuous
 62
     7
370
    25
100
AcDbLine
 10
265.7406161974
 20
-65.890178541
 30
0.0
 11
265.7406161974
 21
-130.1067555954
 31
0.0
  0
LINE
  5
D0
330
1F
100
AcDbEntity
  8
0
  6
Continuous
 62
     7
370
    25
100
AcDbLine
 10
315.7406185027
 20
-130.1067555954
 30
0.0
 11
315.7406185027
 21
-65.890178541
 31
0.0
  0
LINE
  5
D1
330
1F
100
AcDbEntity
  8
0
  6
Continuous
 62
     7
370
    25
100
AcDbLine
 10
314.3448162958
 20
33.4490453165
 30
0.0
 11
274.2676515074
 21
-35.9666334626
 31
0.0
  0
LINE
  5
D2
330
1F
100
AcDbEntity
  8
0
  6
Continuous
 62
     7
370
    25
100
AcDbLine
 10
317.5689224493
 20
-60.9666379629
 30
0.0
 11
357.6460880609
 21
8.4490473751
 31
0.0
  0
SPLINE
  5
D3
330
1F
100
AcDbEntity
  8
0
  6
Continuous
 62
     7
370
    25
100
AcDbSpline
210
0.0
220
0.0
230
1.0
 70
     8
 71
     3
 72
    20
 73
    16
 74
     0
 42
0.000000001
 43
0.00000001
 40
0.0
 40
0.0
 40
0.0
 40
0.0
 40
0.0460732190426006
 40
0.1253377449549626
 40
0.2047558555794939
 40
0.2844066413706884
 40
0.364371931360408
 40
0.4447250869157812
 40
0.5255236433322624
 40
0.6068024311863348
 40
0.6885617840000332
 40
0.7707584759048075
 40
0.853293519420494
 40
0.9359676173197211
 40
1.0
 40
1.0
 40
1.0
 40
1.0
 10
274.2676515074446
 20
-35.96663346255075
 30
0.0
 10
274.0233264770783
 20
-36.3962516257838
 30
0.0
 10
273.358663816676
 20
-37.56498636779378
 30
0.0
 10
272.3414440312783
 20
-39.51123054537891
 30
0.0
 10
271.2408109109473
 20
-41.81296184091975
 30
0.0
 10
270.2294817895237
 20
-44.15582652004881
 30
0.0
 10
269.308918438559
 20
-46.53611205888654
 30
0.0
 10
268.482903063347
 20
-48.951224640499
 30
0.0
 10
267.7552093335904
 20
-51.39798008339379
 30
0.0
 10
267.130206150916
 20
-53.87271899847629
 30
0.0
 10
266.6129186488365
 20
-56.37087044823341
 30
0.0
 10
266.2078163474457
 20
-58.88671792540393
 30
0.0
 10
265.9230235880843
 20
-61.41224783582201
 30
0.0
 10
265.7658424021333
 20
-63.74966246500784
 30
0.0
 10
265.7482811053631
 20
-65.23978903811454
 30
0.0
 10
265.7406161973732
 20
-65.89017854097979
 30
0.0
  0
SPLINE
  5
D4
330
1F
100
AcDbEntity
  8
0
  6
Continuous
 62
     7
370
    25
100
AcDbSpline
210
0.0
220
0.0
230
1.0
 70
     8
 71
     3
 72
    19
 73
    15
 74
     0
 42
0.000000001
 43
0.00000001
 40
0.0
 40
0.0
 40
0.0
 40
0.0
 40
0.0186729212143176
 40
0.1196016332484792
 40
0.2166638345743511
 40
0.3111676329438073
 40
0.4042514360867833
 40
0.4968464817984443
 40
0.5896569979455378
 40
0.6830699698345056
 40
0.777297710328436
 40
0.8724320358847002
 40
0.9683878943624741
 40
1.0
 40
1.0
 40
1.0
 40
1.0
 10
315.7404314760331
 20
-65.90574545887827
 30
0.0
 10
315.7404106242521
 20
-65.90859929436822
 30
0.0
 10
315.7402770668392
 20
-65.92687835106774
 30
0.0
 10
315.743313779213
 20
-65.8481636070156
 30
0.0
 10
315.7649979464055
 20
-65.66248258803589
 30
0.0
 10
315.8147481972125
 20
-65.36010818117968
 30
0.0
 10
315.9009584120417
 20
-64.96217921687013
 30
0.0
 10
316.0306865739362
 20
-64.47528278565221
 30
0.0
 10
316.2090805334889
 20
-63.91188910816137
 30
0.0
 10
316.4393624933754
 20
-63.28572117447408
 30
0.0
 10
316.721347350138
 20
-62.61222706689884
 30
0.0
 10
317.0555494463793
 20
-61.91049312577845
 30
0.0
 10
317.3430511043499
 20
-61.35463958899604
 30
0.0
 10
317.5266561545182
 20
-61.04563125034935
 30
0.0
 10
317.5721545857408
 20
-60.96905713307842
 30
0.0
  0
LWPOLYLINE
  5
D5
330
1F
100
AcDbEntity
  8
0
  6
Continuous
 62
     7
370
    25
100
AcDbPolyline
 90
       84
 70
   128
 43
0.0
 10
273.0629475569
 20
-119.9016540456
 10
274.4505164757
 20
-119.1590824449
 10
275.9313916023
 20
-118.479216977
 10
277.4970949995
 20
-117.8659542859
 10
279.1386535044
 20
-117.3228047632
 10
280.8466690282
 20
-116.8528808576
 10
282.6113555998
 20
-116.4588741705
 10
284.4226058778
 20
-116.1430413887
 10
286.2700451522
 20
-115.9071913597
 10
288.1430912712
 20
-115.752674826
 10
290.0310158863
 20
-115.6803779632
 10
291.9230050381
 20
-115.6907132554
 10
293.8082210597
 20
-115.7836225366
 10
295.6758664552
 20
-115.9585735692
 10
297.5152438277
 20
-116.2145642261
 10
299.3158158066
 20
-116.550128193
 10
301.0672709019
 20
-116.9633425716
 10
302.7595745416
 20
-117.4518421366
 10
304.3830355848
 20
-118.0128273186
 10
305.9283539014
 20
-118.6430855891
 10
307.3866782415
 20
-119.3390066193
 10
308.7496553385
 20
-120.0966045443
 10
310.0094781884
 20
-120.9115397514
 10
311.1589317364
 20
-121.7791437333
 10
312.1914300847
 20
-122.6944481718
 10
313.1010608207
 20
-123.6522090066
 10
313.8826115646
 20
-124.6469415303
 10
314.5316084943
 20
-125.6729471896
 10
315.0443314918
 20
-126.7243497025
 10
315.417846083
 20
-127.7951256608
 10
315.650011998
 20
-128.8791429281
 10
315.739498977
 20
-129.9701910529
 10
315.6857933553
 20
-131.0620215669
 10
315.4892039902
 20
-132.1483810595
 10
315.1508589685
 20
-133.2230465335
 10
314.672693094
 20
-134.2798615217
 10
314.0574465704
 20
-135.3127733429
 10
313.3086432692
 20
-136.315865417
 10
312.4305716324
 20
-137.2833926202
 10
311.4282639278
 20
-138.2098130292
 10
310.3074575598
 20
-139.0898193808
 10
309.074575066
 20
-139.9183719083
 10
307.7366768668
 20
-140.6907240988
 10
306.3014262799
 20
-141.4024520129
 10
304.7770453981
 20
-142.0494797568
 10
303.1722642991
 20
-142.6280996783
 10
301.4962764289
 20
-143.1349996446
 10
299.7586817199
 20
-143.5672745891
 10
297.9694320967
 20
-143.9224488472
 10
296.1387764877
 20
-144.1984881309
 10
294.2771995798
 20
-144.3938105543
 10
292.3953658428
 20
-144.5072991791
 10
290.5040549919
 20
-144.5383027746
 10
288.6140994255
 20
-144.4866430412
 10
286.7363229813
 20
-144.3526165113
 10
284.8814836422
 20
-144.1369911276
 10
283.0602037313
 20
-143.8410024413
 10
281.2829172277
 20
-143.4663444886
 10
279.5598032539
 20
-143.0151648478
 10
277.9007330628
 20
-142.4900462014
 10
276.3152074759
 20
-141.8939975922
 10
274.8123104563
 20
-141.2304321833
 10
273.4006483163
 20
-140.5031519327
 10
272.0883080236
 20
-139.7163220027
 10
270.8828068227
 20
-138.8744492809
 10
269.7910491822
 20
-137.9823560055
 10
268.8192890524
 20
-137.0451518942
 10
267.9730912991
 20
-136.0682057979
 10
267.2573054439
 20
-135.0571122931
 10
266.6760286216
 20
-134.017664215
 10
266.2325917502
 20
-132.95581426
 10
265.929534836
 20
-131.8776455226
 10
265.7685938023
 20
-130.7893334787
 10
265.7506906113
 20
-129.69711139
 10
265.8759260203
 20
-128.6072357083
 10
266.1435855087
 20
-127.5259491996
 10
266.5521340091
 20
-126.4594452077
 10
267.0992317129
 20
-125.4138326787
 10
267.7817452654
 20
-124.3951008053
 10
268.5957655462
 20
-123.4090844313
 10
269.5366300604
 20
-122.4614328777
 10
270.598947304
 20
-121.5575715458
 10
271.7766364417
 20
-120.7026805321
 10
273.0629475569
 20
-119.9016540456
  0
LWPOLYLINE
  5
D6
330
1F
100
AcDbEntity
  8
0
  6
Continuous
 62
     7
370
    25
100
AcDbPolyline
 90
       76
 70
   128
 43
0.0
 10
276.3156384933
 20
-121.7793925544
 10
275.159178114
 20
-122.5054137069
 10
274.1120101106
 20
-123.2847527027
 10
273.1814803
 20
-124.111943225
 10
272.3741149407
 20
-124.981183077
 10
271.6955766922
 20
-125.8863748126
 10
271.1506258434
 20
-126.8211694087
 10
270.7430855747
 20
-127.7790106494
 10
270.4758133105
 20
-128.7531790362
 10
270.3506832685
 20
-129.7368413997
 10
270.3685746057
 20
-130.7230988012
 10
270.5293621986
 20
-131.7050329135
 10
270.8319153263
 20
-132.6757562029
 10
271.2741147925
 20
-133.6284598309
 10
271.852856877
 20
-134.5564615556
 10
272.5640849456
 20
-135.4532513518
 10
273.4028069017
 20
-136.3125395028
 10
274.3631414489
 20
-137.1282985137
 10
275.4383515123
 20
-137.8948067363
 10
276.6208960986
 20
-138.6066874311
 10
277.9024819924
 20
-139.2589462143
 10
279.274115945
 20
-139.8470103104
 10
280.7261807372
 20
-140.3667526927
 10
282.2484886855
 20
-140.8145290548
 10
283.8303629723
 20
-141.1871973896
 10
285.4607084399
 20
-141.4821451713
 10
287.1280884749
 20
-141.6973018058
 10
288.8208079855
 20
-141.8311591603
 10
290.5269927556
 20
-141.882779356
 10
292.2346763731
 20
-141.8517985707
 10
293.9318805718
 20
-141.7384346415
 10
295.6067001841
 20
-141.5434828835
 10
297.247386776
 20
-141.2683103866
 10
298.8424342579
 20
-140.9148484127
 10
300.3806533
 20
-140.4855752877
 10
301.8512529921
 20
-139.9835011951
 10
303.2439205271
 20
-139.412149547
 10
304.5488875496
 20
-138.7755278068
 10
305.7569983155
 20
-138.0781003068
 10
306.8597790032
 20
-137.32475888
 10
307.8494963247
 20
-136.5207890251
 10
308.7192083975
 20
-135.6718298934
 10
309.4628118312
 20
-134.7838349419
 10
310.0750922704
 20
-133.8630336304
 10
310.5517566635
 20
-132.9158854215
 10
310.8894596042
 20
-131.9490326394
 10
311.0858329667
 20
-130.9692575106
 10
311.1394990758
 20
-129.9834327421
 10
311.0500805854
 20
-128.9984732397
 10
310.8182077227
 20
-128.0212870663
 10
310.4455051169
 20
-127.0587290607
 10
309.9345852142
 20
-126.1175506558
 10
309.2890347772
 20
-125.204354068
 10
308.5133793237
 20
-124.3255443954
 10
307.6130615595
 20
-123.4872852337
 10
306.5943942922
 20
-122.6954578074
 10
305.4645265164
 20
-121.9556140189
 10
304.2313793701
 20
-121.2729455602
 10
302.903604317
 20
-120.6522400028
 10
301.4905151522
 20
-120.0978506692
 10
300.0020231352
 20
-119.6136667901
 10
298.4485693244
 20
-119.2030835655
 10
296.8410490095
 20
-118.8689828717
 10
295.1907391067
 20
-118.6137065536
 10
293.5092148527
 20
-118.4390463507
 10
291.8082707798
 20
-118.3462256491
 10
290.0998377387
 20
-118.3358972
 10
288.3958999224
 20
-118.4081332356
 10
286.7084079381
 20
-118.5624262295
 10
285.0491984648
 20
-118.7976942188
 10
283.4299112767
 20
-119.1122876475
 10
281.861903303
 20
-119.5039994405
 10
280.3561725663
 20
-119.9700815416
 10
278.9232812975
 20
-120.507264967
 10
277.5732802849
 20
-121.1117821879
 10
276.3156384933
 20
-121.7793925544
  0
LWPOLYLINE
  5
D7
330
1F
100
AcDbEntity
  8
0
  6
Continuous
 62
     7
370
    25
100
AcDbPolyline
 90
       84
 70
   128
 43
0.0
 10
318.3177837024
 20
31.154148656
 10
319.3137716846
 20
30.5790057042
 10
320.4053078895
 20
29.9486927865
 10
321.5861440468
 20
29.2668301305
 10
322.8495182214
 20
28.5373405667
 10
324.1881903751
 20
27.764368161
 10
325.5944937326
 20
26.9523702249
 10
327.0603716605
 20
26.1059804333
 10
328.5774250822
 20
25.2300422829
 10
330.136975698
 20
24.3295969232
 10
331.7300804736
 20
23.4097896225
 10
333.3476119821
 20
22.4758781302
 10
334.9803183317
 20
21.5332284943
 10
336.6188310682
 20
20.5872253319
 10
338.2537777862
 20
19.643298061
 10
339.87579069
 20
18.706849042
 10
341.4755724484
 20
17.7832459748
 10
343.043970939
 20
16.8777726586
 10
344.5719930779
 20
15.9956270972
 10
346.0508840099
 20
15.1418453581
 10
347.4721849778
 20
14.3213229153
 10
348.8277455465
 20
13.5387710964
 10
350.1098087616
 20
12.7986679138
 10
351.3110186395
 20
12.1052476634
 10
352.4245061085
 20
11.4624756396
 10
353.4438898722
 20
10.8740476442
 10
354.3633306165
 20
10.3433343568
 10
355.1775629487
 20
9.8733628984
 10
355.8819184468
 20
9.4668339474
 10
356.4723681356
 20
9.1260728834
 10
356.9455284133
 20
8.8530263718
 10
357.2986847595
 20
8.6492730145
 10
357.5298246622
 20
8.5159739236
 10
357.637611276
 20
8.4538818561
 10
357.6214387399
 20
8.4633761944
 10
357.4813887136
 20
8.544372461
 10
357.2182725238
 20
8.6964196589
 10
356.8335956033
 20
8.9186599742
 10
356.3295574907
 20
9.2098044449
 10
355.7090478793
 20
9.5681839158
 10
354.9756229095
 20
9.99176273
 10
354.1334761927
 20
10.4781007127
 10
353.1874427626
 20
11.0244178094
 10
352.1429305869
 20
11.6275697588
 10
351.0059284691
 20
12.2841256601
 10
349.7829454634
 20
12.9903056184
 10
348.4809911173
 20
13.742077326
 10
347.1075201547
 20
14.5351332501
 10
345.6704008655
 20
15.3649301787
 10
344.177866373
 20
16.2267051911
 10
342.6384593165
 20
17.1155288919
 10
341.0610041926
 20
18.0263092128
 10
339.4545335977
 20
18.9538339992
 10
337.8282500327
 20
19.8927900207
 10
336.1914679512
 20
20.8377873063
 10
334.5535637098
 20
21.7834275843
 10
332.9239189336
 20
22.7242913531
 10
331.3118651983
 20
23.6549819861
 10
329.7266412249
 20
24.5701808631
 10
328.1773240614
 20
25.464632349
 10
326.6727875953
 20
26.3332255404
 10
325.2216495398
 20
27.1709640341
 10
323.8322251307
 20
27.9730747884
 10
322.5124683098
 20
28.7349508245
 10
321.2699411024
 20
29.4522327804
 10
320.1117613458
 20
30.1208056285
 10
319.0445623117
 20
30.7368371931
 10
318.074456775
 20
31.2968201849
 10
317.2070002171
 20
31.7975143544
 10
316.4471616857
 20
32.2360880271
 10
315.7992941598
 20
32.6100013681
 10
315.2671072207
 20
32.9171194965
 10
314.8536538808
 20
33.1556896649
 10
314.5612956807
 20
33.3243370742
 10
314.3917112503
 20
33.4220964249
 10
314.3458726012
 20
33.4484195196
 10
314.4240378831
 20
33.4031490201
 10
314.6257632368
 20
33.2865389758
 10
314.9498935752
 20
33.0992540586
 10
315.3945704859
 20
32.8423862887
 10
315.9572480357
 20
32.5173850677
 10
316.6347006736
 20
32.1261225732
 10
317.4230535237
 20
31.6708488895
 10
318.3177837024
 20
31.154148656
  0
LWPOLYLINE
  5
D8
330
1F
100
AcDbEntity
  8
0
  6
Continuous
 62
     7
370
    25
100
AcDbPolyline
 90
       76
 70
   128
 43
0.0
 10
321.5704746387
 20
29.2764101472
 10
320.7675495157
 20
29.7400891305
 10
320.0714376777
 20
30.1421080352
 10
319.4870228908
 20
30.4796372816
 10
319.0184039361
 20
30.7503248033
 10
318.6688629992
 20
30.9522504242
 10
318.4408577684
 20
31.0840216813
 10
318.3359871897
 20
31.1447053902
 10
318.3549835645
 20
31.133868715
 10
318.4977151841
 20
31.0515898216
 10
318.7631797436
 20
30.8984495192
 10
319.1495161963
 20
30.6755213803
 10
319.6540159486
 20
30.3843774508
 10
320.2731386653
 20
30.0270395888
 10
321.0025425623
 20
29.6060319412
 10
321.8371107489
 20
29.1243079477
 10
322.7709910693
 20
28.5852273424
 10
323.7976291947
 20
27.9925918084
 10
324.9098257518
 20
27.3505542022
 10
326.0997829151
 20
26.6636129529
 10
327.3591495172
 20
25.9365829803
 10
328.6790916772
 20
25.1745670878
 10
330.0503570096
 20
24.3829249781
 10
331.4633202277
 20
23.5671830505
 10
332.9080723771
 20
22.7330923882
 10
334.374482409
 20
21.8864745801
 10
335.8522595776
 20
21.0332860779
 10
337.3310443194
 20
20.1795048902
 10
338.8004573142
 20
19.3311174684
 10
340.2501989261
 20
18.4940856261
 10
341.6700933252
 20
17.6742693566
 10
343.0501879284
 20
16.8774272112
 10
344.380795546
 20
16.1091493813
 10
345.6525859194
 20
15.3748078867
 10
346.8566397219
 20
14.6795740647
 10
347.9845104615
 20
14.0283128659
 10
349.0282850674
 20
13.4255904568
 10
349.9806471101
 20
12.8756529232
 10
350.8349110459
 20
12.3823365337
 10
351.5850841196
 20
11.9491049987
 10
352.225908512
 20
11.5790129639
 10
352.7528916323
 20
11.274636804
 10
353.1623271922
 20
11.0381111205
 10
353.4513505229
 20
10.8711211308
 10
353.6179359417
 20
10.7748068456
 10
353.6609112392
 20
10.7498642036
 10
353.5799774362
 20
10.7964606544
 10
353.3756989055
 20
10.9142712746
 10
353.0495139082
 20
11.1024787597
 10
352.6037062766
 20
11.3597410999
 10
352.0414008044
 20
11.6842672379
 10
351.3665428319
 20
12.0737740956
 10
350.5838728916
 20
12.5255377092
 10
349.698872708
 20
13.0363939837
 10
348.7177528498
 20
13.6027397299
 10
347.6473937899
 20
14.2206153598
 10
346.4953093566
 20
14.885701647
 10
345.2695721531
 20
15.5932958631
 10
343.9787862279
 20
16.3384735576
 10
342.6320006413
 20
17.115986368
 10
341.2386669885
 20
17.9203899602
 10
339.8085532958
 20
18.7460268202
 10
338.3516947934
 20
19.5871215911
 10
336.878308141
 20
20.4377758427
 10
335.3987252433
 20
21.2920001967
 10
333.9233326644
 20
22.1438283923
 10
332.4624754798
 20
22.9872876287
 10
331.0263966908
 20
23.8164335424
 10
329.6251733456
 20
24.6254722602
 10
328.2686335624
 20
25.408717053
 10
326.9662893579
 20
26.1606879568
 10
325.7272813301
 20
26.8761072084
 10
324.560296998
 20
27.5499403136
 10
323.473523387
 20
28.177490345
 10
322.4745759058
 20
28.7543173365
 10
321.5704746387
 20
29.2764101472
  0
LWPOLYLINE
  5
D9
330
1F
100
AcDbEntity
  8
0
  6
Continuous
 62
     1
370
    25
100
AcDbPolyline
 90
       12
 70
   128
 43
0.0
 10
308.4182871431
 20
-55.6850769911
 10
309.7045982583
 20
-56.4861034776
 10
310.882287396
 20
-57.3409944913
 10
311.9446046396
 20
-58.2448558233
 10
312.8854691538
 20
-59.1925073768
 10
313.6994894347
 20
-60.1785237508
 10
314.3820029871
 20
-61.1972556242
 10
314.9291006909
 20
-62.2428681532
 10
315.3376491913
 20
-63.3093721452
 10
315.6053086797
 20
-64.3906586539
 10
315.7305440888
 20
-65.4805343355
 10
315.7406185027
 20
-65.890178541
  0
LWPOLYLINE
  5
DA
330
1F
100
AcDbEntity
  8
0
  6
Continuous
 62
     1
370
    25
100
AcDbPolyline
 90
       33
 70
   128
 43
0.0
 10
265.7406161974
 20
-65.890178541
 10
265.741735723
 20
-65.7536139985
 10
265.831222702
 20
-64.6625658736
 10
266.0633886171
 20
-63.5785486063
 10
266.4369032082
 20
-62.507772648
 10
266.9496262058
 20
-61.4563701352
 10
267.5986231355
 20
-60.4303644758
 10
268.3801738794
 20
-59.4356319522
 10
269.2898046154
 20
-58.4778711174
 10
270.3223029637
 20
-57.5625666789
 10
271.4717565117
 20
-56.6949626969
 10
272.7315793616
 20
-55.8800274899
 10
274.0945564586
 20
-55.1224295648
 10
275.5528807987
 20
-54.4265085346
 10
277.0981991152
 20
-53.7962502642
 10
278.7216601584
 20
-53.2352650822
 10
280.4139637982
 20
-52.7467655172
 10
282.1654188935
 20
-52.3335511385
 10
283.9659908723
 20
-51.9979871717
 10
285.8053682448
 20
-51.7419965147
 10
287.6730136404
 20
-51.5670454821
 10
289.5582296619
 20
-51.4741362009
 10
291.4502188137
 20
-51.4638009088
 10
293.3381434288
 20
-51.5360977716
 10
295.2111895479
 20
-51.6906143052
 10
297.0586288222
 20
-51.9264643343
 10
298.8698791003
 20
-52.242297116
 10
300.6345656718
 20
-52.6363038032
 10
302.3425811957
 20
-53.1062277087
 10
303.9841397006
 20
-53.6493772315
 10
305.5498430977
 20
-54.2626399226
 10
307.0307182244
 20
-54.9425053904
 10
308.4182871431
 20
-55.6850769911
  0
LWPOLYLINE
  5
DB
330
1F
100
AcDbEntity
  8
0
  6
Continuous
 62
     1
370
    25
100
AcDbPolyline
 90
       14
 70
   128
 43
0.0
 10
308.4182871431
 20
-55.6850769911
 10
309.7194273635
 20
-56.4362040546
 10
310.9415168891
 20
-57.1416781625
 10
312.0775542391
 20
-57.7974682074
 10
313.1210318414
 20
-58.3998085138
 10
314.0659747217
 20
-58.9452531106
 10
314.9069683271
 20
-59.4306796245
 10
315.6391973801
 20
-59.8533010618
 10
316.2584669522
 20
-60.2107038268
 10
316.7612294641
 20
-60.5008344086
 10
317.1446051006
 20
-60.7220354983
 10
317.4063989331
 20
-60.8730376184
 10
317.545110797
 20
-60.9529800314
 10
317.5689224493
 20
-60.9666379629
  0
LWPOLYLINE
  5
DC
330
1F
100
AcDbEntity
  8
0
  6
Continuous
 62
     1
370
    25
100
AcDbPolyline
 90
       30
 70
   128
 43
0.0
 10
274.2676515074
 20
-35.9666334626
 10
274.3157190827
 20
-35.9945170098
 10
274.4866352547
 20
-36.0933379658
 10
274.7803109966
 20
-36.2630338241
 10
275.1950622866
 20
-36.5026293586
 10
275.7285154421
 20
-36.8107582151
 10
276.3776131291
 20
-37.1856503212
 10
277.1386390164
 20
-37.6251556771
 10
278.0072318928
 20
-38.1267590234
 10
278.9784177718
 20
-38.6875932467
 10
280.0466335985
 20
-39.3044363413
 10
281.2057614946
 20
-39.9737600817
 10
282.4491613558
 20
-40.6917355381
 10
283.7697097061
 20
-41.4542349802
 10
285.1598457959
 20
-42.2569086855
 10
286.6116038711
 20
-43.0951480584
 10
288.1166704656
 20
-43.964155974
 10
289.6664245733
 20
-44.8589570453
 10
291.2519876972
 20
-45.7744173951
 10
292.8642798256
 20
-46.7053020715
 10
294.4940642132
 20
-47.6462735262
 10
296.1320073087
 20
-48.5919459868
 10
297.7687255114
 20
-49.5368972429
 10
299.3948444403
 20
-50.4757211163
 10
301.0010509589
 20
-51.403033163
 10
302.5781438833
 20
-52.3135288457
 10
304.1170893
 20
-53.2019896156
 10
305.6090725908
 20
-54.0633235937
 10
307.0455473296
 20
-54.8926059674
 10
308.4182871431
 20
-55.6850769911
  0
ENDSEC
  0
SECTION
  2
OBJECTS
  0
DICTIONARY
  5
C
330
0
100
AcDbDictionary
281
     1
  3
ACAD_GROUP
350
D
  3
ACAD_LAYOUT
350
1A
  3
ACAD_MLINESTYLE
350
17
  3
ACAD_PLOTSETTINGS
350
19
  3
ACAD_PLOTSTYLENAME
350
E
  3
ACAD_SCALELIST
350
47
  0
DICTIONARY
  5
D
102
{ACAD_REACTORS
330
C
102
}
330
C
100
AcDbDictionary
281
     1
  0
DICTIONARY
  5
1A
102
{ACAD_REACTORS
330
C
102
}
330
C
100
AcDbDictionary
281
     1
  3
Layout1
350
1E
  3
Layout2
350
26
  3
Model
350
22
  0
DICTIONARY
  5
17
102
{ACAD_REACTORS
330
C
102
}
330
C
100
AcDbDictionary
281
     1
  3
Standard
350
18
  0
DICTIONARY
  5
19
102
{ACAD_REACTORS
330
C
102
}
330
C
100
AcDbDictionary
281
     1
  0
ACDBDICTIONARYWDFLT
  5
E
102
{ACAD_REACTORS
330
C
102
}
330
C
100
AcDbDictionary
281
     1
  3
Normal
350
F
100
AcDbDictionaryWithDefault
340
F
  0
DICTIONARY
  5
47
102
{ACAD_REACTORS
330
C
102
}
330
C
100
AcDbDictionary
281
     1
  3
A0
350
48
  3
A1
350
49
  3
A2
350
4A
  3
A3
350
4B
  3
A4
350
4C
  3
A5
350
4D
  3
A6
350
4E
  3
A7
350
4F
  3
A8
350
50
  3
A9
350
51
  3
B0
350
52
  3
B1
350
53
  3
B2
350
54
  3
B3
350
55
  3
B4
350
56
  3
B5
350
57
  3
B6
350
58
  3
B7
350
59
  3
B8
350
5A
  3
B9
350
5B
  3
C0
350
5C
  3
C1
350
5D
  3
C2
350
5E
  3
C3
350
5F
  3
C4
350
60
  3
C5
350
61
  3
C6
350
62
  3
C7
350
63
  3
C8
350
64
  3
C9
350
65
  3
D0
350
66
  3
D1
350
67
  3
D2
350
68
  0
LAYOUT
  5
1E
102
{ACAD_REACTORS
330
1A
102
}
330
1A
100
AcDbPlotSettings
  1

  2
none_device
  4

  6

 40
0.0
 41
0.0
 42
0.0
 43
0.0
 44
0.0
 45
0.0
 46
0.0
 47
0.0
 48
0.0
 49
0.0
140
0.0
141
0.0
142
1.0
143
1.0
 70
   688
 72
     1
 73
     0
 74
     5
  7

 75
    16
147
1.0
148
0.0
149
0.0
100
AcDbLayout
  1
Layout1
 70
     1
 71
     1
 10
0.0
 20
0.0
 11
420.0
 21
297.0
 12
0.0
 22
0.0
 32
0.0
 14
1.0000000000E+20
 24
1.0000000000E+20
 34
1.0000000000E+20
 15
-1.0000000000E+20
 25
-1.0000000000E+20
 35
-1.0000000000E+20
146
0.0
 13
0.0
 23
0.0
 33
0.0
 16
1.0
 26
0.0
 36
0.0
 17
0.0
 27
1.0
 37
0.0
 76
     0
330
1B
  0
LAYOUT
  5
26
102
{ACAD_REACTORS
330
1A
102
}
330
1A
100
AcDbPlotSettings
  1

  2
none_device
  4

  6

 40
0.0
 41
0.0
 42
0.0
 43
0.0
 44
0.0
 45
0.0
 46
0.0
 47
0.0
 48
0.0
 49
0.0
140
0.0
141
0.0
142
1.0
143
1.0
 70
   688
 72
     1
 73
     0
 74
     5
  7

 75
    16
147
1.0
148
0.0
149
0.0
100
AcDbLayout
  1
Layout2
 70
     1
 71
     2
 10
0.0
 20
0.0
 11
0.0
 21
0.0
 12
0.0
 22
0.0
 32
0.0
 14
0.0
 24
0.0
 34
0.0
 15
0.0
 25
0.0
 35
0.0
146
0.0
 13
0.0
 23
0.0
 33
0.0
 16
1.0
 26
0.0
 36
0.0
 17
0.0
 27
1.0
 37
0.0
 76
     0
330
23
  0
LAYOUT
  5
22
102
{ACAD_REACTORS
330
1A
102
}
330
1A
100
AcDbPlotSettings
  1

  2
none_device
  4
Letter_(8.50_x_11.00_Inches)
  6

 40
6.35
 41
6.35
 42
6.35000508
 43
6.35000508
 44
215.9
 45
279.4
 46
0.0
 47
0.0
 48
0.0
 49
0.0
140
0.0
141
0.0
142
1.0
143
1.0
 70
  1712
 72
     1
 73
     0
 74
     0
  7

 75
     0
147
1.0
148
0.0
149
0.0
100
AcDbLayout
  1
Model
 70
     1
 71
     0
 10
0.0
 20
0.0
 11
279.4
 21
215.9
 12
0.0
 22
0.0
 32
0.0
 14
0.0
 24
0.0
 34
0.0
 15
279.4
 25
215.9
 35
0.0
146
0.0
 13
0.0
 23
0.0
 33
0.0
 16
1.0
 26
0.0
 36
0.0
 17
0.0
 27
1.0
 37
0.0
 76
     0
330
1F
331
29
  0
MLINESTYLE
  5
18
102
{ACAD_REACTORS
330
17
102
}
330
17
100
AcDbMlineStyle
  2
Standard
 70
     0
  3

 62
   256
 51
90.0
 52
90.0
 71
     2
 49
0.5
 62
   256
  6
BYLAYER
 49
-0.5
 62
   256
  6
BYLAYER
  0
ACDBPLACEHOLDER
  5
F
102
{ACAD_REACTORS
330
E
102
}
330
E
  0
SCALE
  5
48
102
{ACAD_REACTORS
330
47
102
}
330
47
100
AcDbScale
 70
     0
300
1:1
140
1.0
141
1.0
290
     1
  0
SCALE
  5
49
102
{ACAD_REACTORS
330
47
102
}
330
47
100
AcDbScale
 70
     0
300
1:2
140
1.0
141
2.0
290
     0
  0
SCALE
  5
4A
102
{ACAD_REACTORS
330
47
102
}
330
47
100
AcDbScale
 70
     0
300
1:4
140
1.0
141
4.0
290
     0
  0
SCALE
  5
4B
102
{ACAD_REACTORS
330
47
102
}
330
47
100
AcDbScale
 70
     0
300
1:5
140
1.0
141
5.0
290
     0
  0
SCALE
  5
4C
102
{ACAD_REACTORS
330
47
102
}
330
47
100
AcDbScale
 70
     0
300
1:8
140
1.0
141
8.0
290
     0
  0
SCALE
  5
4D
102
{ACAD_REACTORS
330
47
102
}
330
47
100
AcDbScale
 70
     0
300
1:10
140
1.0
141
10.0
290
     0
  0
SCALE
  5
4E
102
{ACAD_REACTORS
330
47
102
}
330
47
100
AcDbScale
 70
     0
300
1:16
140
1.0
141
16.0
290
     0
  0
SCALE
  5
4F
102
{ACAD_REACTORS
330
47
102
}
330
47
100
AcDbScale
 70
     0
300
1:20
140
1.0
141
20.0
290
     0
  0
SCALE
  5
50
102
{ACAD_REACTORS
330
47
102
}
330
47
100
AcDbScale
 70
     0
300
1:30
140
1.0
141
30.0
290
     0
  0
SCALE
  5
51
102
{ACAD_REACTORS
330
47
102
}
330
47
100
AcDbScale
 70
     0
300
1:40
140
1.0
141
40.0
290
     0
  0
SCALE
  5
52
102
{ACAD_REACTORS
330
47
102
}
330
47
100
AcDbScale
 70
     0
300
1:50
140
1.0
141
50.0
290
     0
  0
SCALE
  5
53
102
{ACAD_REACTORS
330
47
102
}
330
47
100
AcDbScale
 70
     0
300
1:100
140
1.0
141
100.0
290
     0
  0
SCALE
  5
54
102
{ACAD_REACTORS
330
47
102
}
330
47
100
AcDbScale
 70
     0
300
2:1
140
2.0
141
1.0
290
     0
  0
SCALE
  5
55
102
{ACAD_REACTORS
330
47
102
}
330
47
100
AcDbScale
 70
     0
300
4:1
140
4.0
141
1.0
290
     0
  0
SCALE
  5
56
102
{ACAD_REACTORS
330
47
102
}
330
47
100
AcDbScale
 70
     0
300
8:1
140
8.0
141
1.0
290
     0
  0
SCALE
  5
57
102
{ACAD_REACTORS
330
47
102
}
330
47
100
AcDbScale
 70
     0
300
10:1
140
10.0
141
1.0
290
     0
  0
SCALE
  5
58
102
{ACAD_REACTORS
330
47
102
}
330
47
100
AcDbScale
 70
     0
300
100:1
140
100.0
141
1.0
290
     0
  0
SCALE
  5
59
102
{ACAD_REACTORS
330
47
102
}
330
47
100
AcDbScale
 70
     0
300
1/128" = 1'-0"
140
0.0078125
141
12.0
290
     0
  0
SCALE
  5
5A
102
{ACAD_REACTORS
330
47
102
}
330
47
100
AcDbScale
 70
     0
300
1/64" = 1'-0"
140
0.015625
141
12.0
290
     0
  0
SCALE
  5
5B
102
{ACAD_REACTORS
330
47
102
}
330
47
100
AcDbScale
 70
     0
300
1/32" = 1'-0"
140
0.03125
141
12.0
290
     0
  0
SCALE
  5
5C
102
{ACAD_REACTORS
330
47
102
}
330
47
100
AcDbScale
 70
     0
300
1/16" = 1'-0"
140
0.0625
141
12.0
290
     0
  0
SCALE
  5
5D
102
{ACAD_REACTORS
330
47
102
}
330
47
100
AcDbScale
 70
     0
300
3/32" = 1'-0"
140
0.09375
141
12.0
290
     0
  0
SCALE
  5
5E
102
{ACAD_REACTORS
330
47
102
}
330
47
100
AcDbScale
 70
     0
300
1/8" = 1'-0"
140
0.125
141
12.0
290
     0
  0
SCALE
  5
5F
102
{ACAD_REACTORS
330
47
102
}
330
47
100
AcDbScale
 70
     0
300
3/16" = 1'-0"
140
0.1875
141
12.0
290
     0
  0
SCALE
  5
60
102
{ACAD_REACTORS
330
47
102
}
330
47
100
AcDbScale
 70
     0
300
1/4" = 1'-0"
140
0.25
141
12.0
290
     0
  0
SCALE
  5
61
102
{ACAD_REACTORS
330
47
102
}
330
47
100
AcDbScale
 70
     0
300
3/8" = 1'-0"
140
0.375
141
12.0
290
     0
  0
SCALE
  5
62
102
{ACAD_REACTORS
330
47
102
}
330
47
100
AcDbScale
 70
     0
300
1/2" = 1'-0"
140
0.5
141
12.0
290
     0
  0
SCALE
  5
63
102
{ACAD_REACTORS
330
47
102
}
330
47
100
AcDbScale
 70
     0
300
3/4" = 1'-0"
140
0.75
141
12.0
290
     0
  0
SCALE
  5
64
102
{ACAD_REACTORS
330
47
102
}
330
47
100
AcDbScale
 70
     0
300
1" = 1'-0"
140
1.0
141
12.0
290
     0
  0
SCALE
  5
65
102
{ACAD_REACTORS
330
47
102
}
330
47
100
AcDbScale
 70
     0
300
1-1/2" = 1'-0"
140
1.5
141
12.0
290
     0
  0
SCALE
  5
66
102
{ACAD_REACTORS
330
47
102
}
330
47
100
AcDbScale
 70
     0
300
3" = 1'-0"
140
3.0
141
12.0
290
     0
  0
SCALE
  5
67
102
{ACAD_REACTORS
330
47
102
}
330
47
100
AcDbScale
 70
     0
300
6" = 1'-0"
140
6.0
141
12.0
290
     0
  0
SCALE
  5
68
102
{ACAD_REACTORS
330
47
102
}
330
47
100
AcDbScale
 70
     0
300
1'-0" = 1'-0"
140
12.0
141
12.0
290
     0
  0
ENDSEC
  0
EOF
